Song name
# A B C D E F G H I J K L M N O P Q R S T U V W X Y Z

Misc Unsigned Bands - 26 Fifty - She Had Me tab

Help us improve GuitareTab! Take a short survey!
tabbed by: run5home
email: bball10@ne.rr.com

Another one of our songs, it's pretty good when u hear it

KEY
^ = hammer on or pull off
/ = one strum
pm = palm mute

Acoustic

INTRO/OUTRO
              / / / / / /           / / / / / /            / / / / / /
e|-----------3---------------------3----------------------3------------|
B|-----------3---------------------3----------------------3------------|
G|-----------0---------------------0----------------------0------------|
D|-----------0----------------0^2--2-----------------0^2--2------------|
A|------0^2--2------------0^3------3-------------0^2------2------------|
E|--0^3------3--------------------------------------------0------------|
              / / / / / /
e|-----------3-------------|
B|-----------3-------------|
G|-----------0-------------|
D|-----------0-------------|  X 2
A|------0^2--2-------------|
E|--0^3------3-------------|

VERSE
     / /  / /  / /  / / 
e|----------------------|
B|----------------------|
G|--6----4----2----1----|
D|--6----4----2----2----| X 4
A|--4----2----0----2----|
E|----------------------|
  pm--------------------

CHORUS
     / /  / /  / /  / /
e|--0----0----0----0----|
B|--0----0----0----0----|
G|--6----4----2----1----|
D|--6----4----2----2----|  X 4
A|--4----2----0----2----|
E|----------------------|7

BRIDGE
     / /  / /  / /  / /  / /  / / / / / / /
e|--2----0----3----2----0----3--------------|
B|--3----1----3----3----1----3--------------|
G|--4----0----0----4----0----0--------------|
D|--4----2----0----4----2----0--------------|
A|--2----3----2----2----3----2--------------|
E|------------3--------------3--------------|


ORDER OF SONG

intro/outro
verse,
chorus,
verse,
chorus,
bridge,
chorus,
intro/outro,

have fun!!
Related for 26 Fifty - She Had Me tab