Song name
# A B C D E F G H I J K L M N O P Q R S T U V W X Y Z

Misc Unsigned Bands - Chapter 34 - Jote tab

-------------------------------------------------------------------------------
			     Jote - Chapter 34


Tuning: Standard

Main Riff

Acoustic

e|-3----3--3----x--x----x--x----x--------------------------------------------------------|
B|-0----0--0----0--3----3--3----0--------------------------------------------------------|
G|-0----0--0----0--0----0--2----0--------------------------------------------------------|
D|-x----0--0----0--0----0--0----0--------------------------------------------------------|
A|-x----0--0----x--2----0--0----0--------------------------------------------------------|
E|-0----0--3----x--3----0--2----0--------------------------------------------------------|

Verse

e|-x----x--x----x----------------------------------------------------------------|
B|-3----3--3----3----------------------------------------------------------------|
G|-0----0--0----0----------------------------------------------------------------|
D|-2----0--0----0----------------------------------------------------------------|
A|-2----0--2----0----------------------------------------------------------------|
E|-0----0--3----2----------------------------------------------------------------|

Break

e|--x--x--x--x--x--x--x-------------------------------------------------------------|
B|--3--3--3--3--3--3--3-------------------------------------------------------------|
G|--0--0--0--0--0--0--0-------------------------------------------------------------|
D|--2--0--0--0--0--0--2-------------------------------------------------------------|
A|--2--2--2--3--2--2--2-------------------------------------------------------------|
E|--0--2--3--3--3--2--0-------------------------------------------------------------|


| x  Mute note
===============================================================================
Tap to rate this tab
# A B C D E F G H I J K L M N O P Q R S T U V W X Y Z