Song name
# A B C D E F G H I J K L M N O P Q R S T U V W X Y Z

Misc Unsigned Bands - Half Awake - The Begining Of The End tab

THE BEGINNING OF THE END (intro to Organized Chaos CD)

|-12---9h12p9----9--------------------------------------------------------|
|-9-----------12---12-9-9/7-9-8---------8---------------------------------|
|---------------------------7-9-----9-------9---8---------8-------6---4-3-|
|-----------------------------7---7---7---7---7-9---9p7h9---9-7/5-7---5-4-|
|-----------------------------0-------------------------------------------|
|-----------------------------------------------7-----------------5---3-2-|

|---------------------|
|---------------------|
|-------------0h1h2-3-|
|-------0h1h2---------|
|-0h1h2---------------|
|-------------------3-|

|------------------|
|------------------|
|-3-3/5-5/7-7/10-9-| x 2
|------------------|
|------------------|
|-3-3/5-5/7-7/10-9-|

|-------------------|
|-------------------|
|-3-3/5-5/7-7/10-12-|
|-------------------|
|-------------------|
|-3-3/5-5/7-7/10-12-|
Tap to rate this tab
# A B C D E F G H I J K L M N O P Q R S T U V W X Y Z