Song name
# A B C D E F G H I J K L M N O P Q R S T U V W X Y Z

Misc Unsigned Bands - Half Awake - Negligence tab

Help us improve GuitareTab! Take a short survey!
NEGLIGENCE
INTRO
GUITAR I - strumming
one two three FOUR!
|---------------------------------------------------------------------------------------------------|
|---------------------------------------------------------------------------------------------------|
|-7-7-7-7-7-7--7-7-7-------7-7-7-7-7-7--7-7-7-9-----7-7-7-7-7-7--7-7-7-5-9-7-5-7-7-7-7-7-7----------| x 2
|-7-7-7-7-7-7--7-7-7-5-----7-7-7-7-7-7--7-7-7-9-----7-7-7-7-7-7--7-7-7-5-9-7-5-7-7-7-7-7-7--7-7-7-5-|
|-5-5-5-5-5-5--5-5-5-5-----5-5-5-5-5-5--5-5-5-7-----5-5-5-5-5-5--5-5-5-3-7-5-3-5-5-5-5-5-5--7-7-7-5-|
|--------------------3----------------------------------------------------------------------5-5-5-3-|

GUITAR TWO - enters second time
|--------------------------------------------------------------------------------------------|
|--------------------------------------------------------------------------------------------|
|-12h14p12h14p12h14p12h14p12-14/15-14-12-------12h14p12h14p12h14p12h14p12-14/15-14-12-15b119~|
|----------------------------------------12~-------------------------------------------------|
|--------------------------------------------------------------------------------------------|
|--------------------------------------------------------------------------------------------|

|-------------------------------------------------------------15h17p15h17p15h17p15h17p15-17/19-17-15-17/21-|
|----------------------------------------15/17-15-12-15b17~------------------------------------------------|
|-12h14p12h14p12h14p12h14p12-14/15-14-12-------------------------------------------------------------------|
|----------------------------------------------------------------------------------------------------------|
|----------------------------------------------------------------------------------------------------------|
|----------------------------------------------------------------------------------------------------------|

VERSES - only guitar two
|-----------------|
|-----------------|
|-5-5-----5-5-7-7-| x repeat a s*** load
|-5-5-5-5-5-5-7-7-|
|-3-3-5-5-3-3-5-5-|
|-----3-3---------|

PRE-CHORUS - guitar one (guitar two continues verse lick)
|-----------|     |-----------|
|-----------|     |-----------|
|-5---9-----| x 2 |-5---7-9-9-|
|-5-5-9-9sd-|     |-5-5-7-9-9-|
|-3-5-7-9sd-|     |-3-5-5-7-7-|
|---3---7sd-|     |---3-------|

CHORUS - both guitars - fast strumming
|-----------------------------------|     |-------|
|-----------------------------------|     |-------|
|-8-8-8-8-8-6-6-8sd---4-4-4-4-4-4/6-| x 2 |-----7-| x 8 (then it all repeats)
|-9-9-9-9-9-7-7-9sd---5-5-5-5-5-5/7-|     |-7-7-7-|
|-9-9-9-9-9-7-7-9sd---5-5-5-5-5-5/7-|     |-7-7-5-|
|-7-7-7-7-7-5-5-7sd---3-3-3-3-3-3/5-|     |-5-5---|

|-------------------|
|-------------------|
|-8-8-8-8-8-6-6-4-3-|
|-9-9-9-9-9-7-7-5-4-|
|-9-9-9-9-9-7-7-5-4-|
|-7-7-7-7-7-5-5-3-2-|

BACKING FOR SOLO 1 (guitar two)
|-----------------------------------------------------------------|
|-----------------------------------------------------------------|
|-3-3-3-3-3-3-3-3-4-4-4-4-4-4-4-4-6-6-6-6-6-6-6-6-6-6-6-6-6-6-6-6-|
|-4-4-4-4-4-4-4-4-5-5-5-5-5-5-5-5-7-7-7-7-7-7-7-7-7-7-7-7-7-7-7-7-|
|-4-4-4-4-4-4-4-4-5-5-5-5-5-5-5-5-7-7-7-7-7-7-7-7-7-7-7-7-7-7-7-7-|
|-2-2-2-2-2-2-2-2-3-3-3-3-3-3-3-3-5-5-5-5-5-5-5-5-5-5-5-5-5-5-5-5-|

SOLO 1 (guitar one)
|---------------------------------------------------------------12h15-15/17-17-17-15-12h15p12----12-|
|------------------------------------------15-15b-5bd-15b-12h15-------------------------------15----|
|-------12-15-15b-15bd-15bd-12h15p12----12----------------------------------------------------------|
|-12h15------------------------------15-------------------------------------------------------------|
|---------------------------------------------------------------------------------------------------|
|---------------------------------------------------------------------------------------------------|

|-15-----------------------------------------------------|
|----15-12-----------------------------------------------|
|----------12----12-14/15-14-12-9p7p0-7h9/21-21-21b-21bd-|
|-------------14-----------------------------------------|
|--------------------------------------------------------|
|--------------------------------------------------------|

SOLO 2 - guitar one
|-------------------------------------------17/19-15-14-12h14p12h14p12h14p12h14p12h14p12h1412h15p12h15p12h15-|
|----------------------------------------15------------------------------------------------------------------|
|-------------15-12-12h15p12----12-15/17---------------------------------------------------------------------|
|-------15-12----------------15------------------------------------------------------------------------------|
|-15h17------------------------------------------------------------------------------------------------------|
|------------------------------------------------------------------------------------------------------------|

|-12h15p12----12-15/17-15-12h15p12----12-------------------| |----------------------|     |------------|
|----------15----------------------15----15-12----12-------| |----------------------|     |------------|
|----------------------------------------------15----15-12-| |-9-11/12-9-11/12-9-11-| x 2 |-9-11/12-11-| x 4
|----------------------------------------------------------| |----------------------|     |------------|
|----------------------------------------------------------| |----------------------|     |------------|
|----------------------------------------------------------| |----------------------|     |------------|

|------------------------|--------|  
|------------------------|--------|  
|-9h11p9----9------------|------9-| x 6
|--------11---11/12-11-9-|-9h11---|  
|------------------------|--------|  
|------------------------|--------|  

|-------------11h13p11----11-13/16-14h16p14----14-16/18-18-19-19-20-20-20-20b-20bd-|
|-------11-13----------13-------------------16-------------------------------------|
|-11/13----------------------------------------------------------------------------|
|----------------------------------------------------------------------------------|
|----------------------------------------------------------------------------------|
|----------------------------------------------------------------------------------

OUTRO
|----------------------------------------15/19-17-15h17p15-12-15-12-------------------------17h19p17-15-|
|----------------------------15/17-15-12----------------------------15-12-15/17-15-17/20-19-------------|
|-------------12-14/15-14-12----------------------------------------------------------------------------|
|-------12h14-------------------------------------------------------------------------------------------|
|-12h14-------------------------------------------------------------------------------------------------|
|-------------------------------------------------------------------------------------------------------|

|--------------------------------------------|
|--------------------------------------------|
|--------------------------------------------|
|-11p10p9p0-9p8p7p0-7bd---2---2-2-2---2/12-2-|
|-------------------------2---2-2-2---2/12-2-|
|-------------------------0---0-0-0--------0-|

YEAH!
Related for Half Awake - Negligence tab