Song name
# A B C D E F G H I J K L M N O P Q R S T U V W X Y Z

Misc Unsigned Bands - Half Awake - Hubris tab

HUBRIS
INTRO - guitar two
|------------------------------|
|------------------------------|
|------------------------------| x 4
|------------------------------|
|-2---2/9~---9/7-9/5-3/5/7-5/3-|
|-2---2/9~---9/7-9/5-3/5/7-5/3-|

guitar one (enters on third time through)
|------------------------------------15/17-15h17p15-11~|
|------------------------15/17-15-13-------------------|
|-9h10h11~---12h14/15~---------------------------------|
|------------------------------------------------------|
|------------------------------------------------------|
|------------------------------------------------------|

|-13/14-14-15-15-17/19-19p18p17-17p16p15-12-------------------|
|-------------------------------------------14-12-------------|
|-------------------------------------------------14-12-14b17-|
|-------------------------------------------------------------|
|-------------------------------------------------------------|
|-------------------------------------------------------------|

|-------------15h17p15-17h19p17-17/15-12-|
|-------17-15-------------------------12-|
|-17-15-------------------------------12-|
|----------------------------------------|
|----------------------------------------|
|----------------------------------------|

CHORUS ONE (slow)
|------------------------|
|------------------------|
|------------------------|
|-2~-----5~-----7~-----2~|
|-2~-----5~-----7~-----2~|
|-0~-----3~-----5~-----0~|

RIFF A - metallic and heavy/slow - both guitars
|---------------------------|
|---------------------------|
|---------------------------| x 4
|---------------------------|
|-2-9---9-7-9-5-3-5-7-5-3-2-|
|-2-9---9-7-9-5-3-5-7-5-3-2-|

RIFF B - faster - both guitars
|---------------------------|
|---------------------------|
|---------------------------| x 4
|---------------------------|
|-2-2-3-2-2-4-2-2-3-2-2-5-3-|
|-2-2-3-2-2-4-2-2-3-2-2-5-3-|

VERSE 1 - guitar two
|-----------|
|-----------|
|-------9---| x 4
|-9-7---9-9-|
|-9-7---7-9-|
|-7-5-----7-|

RIFF C
|-------------|
|-------------|
|-------------|
|-------------|
|-5/9-7-9-7-5-|
|-5/9-7-9-7-5-|

VERSE 1a - guitar two (one does same as verse 1)
|---------------------------------|
|---------------------------------|
|-------9-------------------------|
|-9-7---7-9---9-x-5-5-x-x-7-x-2-2-|
|-9-7---7-9---9-x-5-5-x-x-7-x-2-2-|
|-7-5-----7---7-x-3-3-x-x-5-x-0-0-|

RIFF D
|---------------------| |-------|     |-------------|
|---------------------| |-------|     |-------------|
|---------------------| |-------| x 4 |-------------|
|---------------------| |-------|     |-------------|
|-9/3-3-3-3-3-2-2-2-2-| |-2-5-3-|     |-2-----2-2-2-|
|-9/3-3-3-3-3-2-2-2-2-| |-2-5-3-|     |-2-----2-2-2-|

CHORUS
|-----------------------------------------|
|-----------------------------------------|
|-----------------------------------------|
|-9-9-9-9-9-9-7-7-7-7-7-7-5-x-2-2-2-2-2-2-|
|-9-9-9-9-9-9-7-7-7-7-7-7-5-x-2-2-2-2-2-2-|
|-7-7-7-7-7-7-5-5-5-5-5-5-3-x-0-0-0-0-0-0-|

|-----------------------------------------|
|-----------------------------------------|
|-----------------------------------------|
|-5-5-5-5-5-5-7-7-7-7-7-7-9-9-9-9-9-9-12~-|
|-5-5-5-5-5-5-7-7-7-7-7-7-9-9-9-9-9-9-12~-|
|-3-3-3-3-3-3-5-5-5-5-5-5-7-7-7-7-7-7-10~-|

|-------------------------------------|
|-------------------------------------|
|-------------------------------------|
|-12-12-12-12-12-12-9-9-9-9-9-9-7-x-5-|
|-12-12-12-12-12-12-9-9-9-9-9-9-7-x-5-|
|-10-10-10-10-10-10-7-7-7-7-7-7-5-x-3-|

|---------------------------|
|---------------------------|
|---------------------------|
|-9-9-9-9-9-9-7-7-x-5-5-x-2-|
|-9-9-9-9-9-9-7-7-x-5-5-x-2-|
|-7-7-7-7-7-7-5-5-x-3-3-x-0-|

SOLO - guitar one (no other instruments) - very slow and mysterious
|-----------------------------|
|-----------------------------|
|-9h10~~~---9h11~~~---9h12~~~-| x 2
|-----------------------------|
|-----------------------------|
|-----------------------------|
very fast
|----------------|
|----------------|
|-9h10-9h11-9h12-| x 3
|----------------|
|----------------|
|----------------|

|---------------------|
|---------------------|
|-12p9-11p9-10p9-11p9-| x 4
|---------------------|
|---------------------|
|---------------------|

|---------------------------|
|---------------------------|
|-9h10p9-9h11p9-9h12p9-12br-|
|---------------------------|
|---------------------------|
|---------------------------|

now the rest of the band joins in
guitar one - extremely fast
|---------|     |---------|     |---------|     |---------|
|---------|     |---------|     |-7p5p0-5-|     |-9p7p0-7-|
|-9p7p0-7-| x 4 |-7p5p0-5-| x 4 |---------| x 4 |---------| x 4
|---------|     |---------|     |---------|     |---------|
|---------|     |---------|     |---------|     |---------|
|---------|     |---------|     |---------|     |---------|
|
|guitar two
|
|-------------------------------------------------|
|-------------------------------------------------|
|-------------------------------------------------|
|-9-9-9-9-9-9-7-7-7-7-7-7-5-5-5-5-5-5-2-2-2-2-2-2-|
|-9-9-9-9-9-9-7-7-7-7-7-7-5-5-5-5-5-5-2-2-2-2-2-2-|
|-7-7-7-7-7-7-5-5-5-5-5-5-3-3-3-3-3-3-0-0-0-0-0-0-|

|-------------------------|
|-------------7p5p0-9p7p0-|
|-9p7p0-7p5p0-------------| x 4
|-------------------------|
|-------------------------|
|-------------------------|
|
|-------------------------|
|-------------------------|
|-------------------------| x 4
|-9-----7-----5-----2-----|
|-9-----7-----5-----2-----|
|-7-----5-----3-----0-----|

|-------|  |---| |-------|  |---| |-------|  |-5-| |-------|  |-7-|
|-------|  |-7-| |-------|  |-5-| |-7p5p0-|  |-5-| |-9p7p0-|  |-7-|
|-9p7p0-|x4|-7-| |-7p5p0-|x4|-5-| |-------|x4|---| |-------|x4|---|
|-------|  |---| |-------|  |---| |-------|  |---| |-------|  |---|
|-------|  |---| |-------|  |---| |-------|  |---| |-------|  |---|
|-------|  |---| |-------|  |---| |-------|  |---| |-------|  |---|
|
|------------------------------------------------------------|
|------------------------------------------------------------|
|---------9--------------7----------------5----------------2-|
|-9-9-9-9-9------7-7-7-7-7--------5-5-5-5-5--------2-2-2-2-2-|
|-9-9-9-9-7------7-7-7-7-5--------5-5-5-5-3--------2-2-2-2-0-|
|-7-7-7-7--------5-5-5-5----------3-3-3-3----------0-0-0-0-0-|

guitar one (alone again) - slow
|-7--------------------------------------------------------------------|
|-7/19-19-19-19-19~----------------------------------------------------|
|---------------------------15/-12~---------15/12---------15/-12brbrbr-|
|---------------------15-17-----------15h17---------15-17--------------|
|----------------------------------------------------------------------|
|----------------------------------------------------------------------|

|-------------------------------|
|-------------------------------|
|-------------------------------|
|-------15-12h13p12-15-12-13-12~|
|-15h17-------------------------|
|-------------------------------|
Tap to rate this tab
# A B C D E F G H I J K L M N O P Q R S T U V W X Y Z