Song name
# A B C D E F G H I J K L M N O P Q R S T U V W X Y Z

Misc Unsigned Bands - Half Awake - Close My Eyes To See tab

CLOSE MY EYES TO SEE
INTRO SOLO (one guitar only (no backing))
|----------------------------------------------------------------------------------------------------|
|----------------------------------------------------------------------------------------------------|
|---------------------------------------9v-------------------------------7p6p5p0---5-----------------|
|-3/9v-8h9h11-9-11/12-11-9h11p9v---9h11------9h11-----------9h11p9---------------7---7-5-7/9-7h9p7---|
|-------------------------------------------------9v---9h11--------7v/-----------------------------9-|
|----------------------------------------------------------------------------------------------------|

|-------------------------14p13p12----------------12h14/15-12h14p12----------------------------------------|
|----------------------------------14-12-12h14/15-------------------14-12-12h14p12h14p12h14p12-12h14-12h15-|
|----------------------------------------------------------------------------------------------------------|
|----------------------------------------------------------------------------------------------------------|
|-7-9/10-9-7-----------------------------------------------------------------------------------------------|
|------------10/9-7v/--------------------------------------------------------------------------------------|
|----------------------------------------------------------------------------------------------------------|

|-12h14-12h14p12-15-12h15p12-15/17-15h17p15-------------------------17h19p17----17-15h17p15------|
|-------------------------------------------17-15-------------17-19----------19-------------17v/-|
|-------------------------------------------------17-15h17/19------------------------------------|
|------------------------------------------------------------------------------------------------|
|------------------------------------------------------------------------------------------------|
|------------------------------------------------------------------------------------------------|

|-------------------------------------------------------------------------------|
|-------------------------------------------------------------------------------|
|-----9br-7h8p7v---7------------------------------------------------------------|
|-7br------------9---9-7-5-7-5-3-5-4-3-5-4-3-5-4-3-5-4-3/5v-4-5/7-5-4h5p4-------|
|-------------------------------------------------------------------------5-5/0-|
|-------------------------------------------------------------------------------|

VERSE CHORDS
C - G - Dsus2 - D (x4)

PRE-CHORUS CHORDS
A5 - Em - Dsus2 - D (x2)

CHORUS CHORDS
C - E - Am - D - Dsus2 - D
C - E - Am - D
C - E - G
A5 - Em - Dsus2 - D
A5 - Em - Dsus2 - D

SOLO 2 (with verse chords behind)
|----------------------------------------------------9p8p7-----------------7h9p7----------9h11p9----9-11/15-14-|
|----------------------------------------------------------9-7---------7h9-------9-9/11----------11------------|
|-10-12/14-12v-11h12p11----11----------------7-----------------9-7-7h9-----------------------------------------|
|-----------------------12----12/-9v---7h8h9---9v/-------------------------------------------------------------|
|--------------------------------------------------------------------------------------------------------------|
|--------------------------------------------------------------------------------------------------------------|

|-12-14/17-15-------------17-19-17-------|
|-------------17-15-17/19----------19/21-|
|----------------------------------------|
|----------------------------------------|
|----------------------------------------|
|----------------------------------------|

|-------12h14p12-|
|-12h14----------|
|----------------| x 8
|----------------|
|----------------|
|----------------|

|-14-14/15-15/17-17/19-19h21p19-19/17-17/15-12/-|
|-----------------------------------------------|
|-----------------------------------------------|
|-----------------------------------------------|
|-----------------------------------------------|
|-----------------------------------------------|

BRIDGE
|-------------------|     |-----------|
|-------------------|     |-----------|
|-------------------| x 2 |-----------| x 2 (everyting) (repeat it all again)
|-5-5-5-5/9-9-7-7-5-|     |-5-5-5-5/9-|
|-5-5-5-5/9-9-7-7-5-|     |-5-5-5-5/9-|
|-3-3-3-3/7-7-5-5-3-|     |-3-3-3-3/7-|

|----------------------|
|----------------------|
|----------------------| x 2
|-9-9/-5-5-5-5-5-7-7-9-|
|-9-9/-5-5-5-5-5-7-7-9-|
|-7-7/-3-3-3-3-3-5-5-7-|

|-----------------------------------------------|
|-----------------------------------------------|
|-----------------------------------------------|
|-5-5-5/---5-5-5/---5-5-5-5-5/7-7-7-7-7-7-7/9-9-|
|-5-5-5/---5-5-5/---5-5-5-5-5/7-7-7-7-7-7-7/9-9-|
|-3-3-3/---3-3-3/---3-3-3-3-3/5-5-5-5-5-5-5/7-7-|

SOLO 3 (more of a fill)
|-------------------------------------------------12-14/15-14-12-15-15-17-17-19-19-21-21-21b-21b/-|
|-------------------------13/15-14-12h14p12----12-------------------------------------------------|
|-----------12b-12b-11-12-------------------12----------------------------------------------------|
|-------------------------------------------------------------------------------------------------|
|-/9-9-8-7----------------------------------------------------------------------------------------|
|-------------------------------------------------------------------------------------------------|

OUTRO
|-9/5-3h4p3-2-5/3-2-0-----------0-|
|-9/5-3-------5/3-0-0---------0---|
|---------------------------1-----|
|-------------------------2-------|
|-----------------------2---------|
|---------------------0-----------|
Tap to rate this tab
 
# A B C D E F G H I J K L M N O P Q R S T U V W X Y Z