Song name
# A B C D E F G H I J K L M N O P Q R S T U V W X Y Z

Misc Unsigned Bands - Anything But Chav - Song 001 tab

-------------------------------------------------------------------------------
			     Song 001 - Anything But Chav
Tabbed by:LSD

Tuning:EADGBE
Main Riff
e|--------------------------------------------------------------------------|
B|--------------------------------------------------------------------------|
G|-----0--3------0--3--5b--3------------------------------------------------|
D|-----0--3------0--3--5b--3------------------------------------------------|
A|--------------------------------------------------------------------------|
E|-3----------3-------------------------------------------------------------|
Repeat this riff several times
Chorus 1
e|-----xx---xx---xx---xx----------------------------------------------------|
B|-----xx---xx---xx---xx----------------------------------------------------|
G|---3-xx-3-xx-5-xx-5-xx----------------------------------------------------|
D|---3-xx-3-xx-5-xx-5-xx----------------------------------------------------|
A|---1-xx-1-xx-3-xx-3-xx----------------------------------------------------|
E|-----xx---xx---xx---xx----------------------------------------------------|
Chorus 2
e|-----xx---xx---xx---xx----------------------------------------------------|
B|-----xx---xx---xx---xx----------------------------------------------------|
G|---3-xx-3-xx-5-xx-5-xx-8-10-----------------------------------------------|
D|---3-xx-3-xx-5-xx-5-xx-8-10-----------------------------------------------|
A|---1-xx-1-xx-3-xx-3-xx-6--8-----------------------------------------------|
E|-----xx---xx---xx---xx----------------------------------------------------|

| /  slide up
| \  slide down
| h  hammer-on
| p  pull-off
| ~  vibrato
| +  harmonic
| x  Mute note
===============================================================================
Tap to rate this tab
 
# A B C D E F G H I J K L M N O P Q R S T U V W X Y Z