Song name
# A B C D E F G H I J K L M N O P Q R S T U V W X Y Z

Misc Unsigned Bands - Overjoyed - Oh No tab

Intro pt. 1:
e-3-1-1-3-5-3~-1-3-1-3~-3-5-|
B---------------------------|
G---------------------------|
D---------------------------|
A---------------------------|
E---------------------------|

Intro pt. 2:
e|-0-0-3-1-1-3-5-3~-1-3-1-3~-3-5-|
B|-------------------------------|
G|-------------------------------|
D|-------------------------------|
A|-------------------------------|
E|-------------------------------|

e-----3-1-1-3-5-3~-1-3-1-3~-3-5-|
B-1-1---------------------------|
G-------------------------------|
D-------------------------------|
A-------------------------------|
E-------------------------------|

e-5-5-3-1-1-3-5-3~-1-3-1-3~-3-5-|
B-------------------------------|
G-------------------------------|
D-------------------------------|
A-------------------------------|
E-------------------------------|

e-1-1-3-1-1-3-5-3~-1-3-1-3~-3-5-|
B-------------------------------|
G-------------------------------|
D-------------------------------|
A-------------------------------|
E-------------------------------|

. =P.M
Verse:
e-----------------------------------------------------------------|
B-----------------------------------------------------------------|
G---------------------------------7-7-7-7-7-7-7-7-3-3-3-3-3-3-3-3-|
D-7-7-7-7-7-7-7-7-3-3-3-3-3-3-3-3-7-7-7-7-7-7-7-7-3-3-3-3-3-3-3-3-|
A-7-7-7-7-7-7-7-7-3-3-3-3-3-3-3-3-5-5-5-5-5-5-5-5-1-1-1-1-1-1-1-1-|
E-5-5-5-5-5-5-5-5-1-1-1-1-1-1-1-1---------------------------------|
    . . . . . . .   . . . . . . .   . . . . . . .   . . . . . . .

Chorus:
e-----------------------------------------------------------------|
B-----------------------------------------------------------------|
G-------------------------------------------------2-2-2-2-2-2-2-2-|
D-7-7-7-7-7-7-7-7-5-5-5-5-5-5-5-5-3-3-3-3-3-3-3-3-2-2-2-2-2-2-2-2-|
A-7-7-7-7-7-7-7-7-5-5-5-5-5-5-5-5-3-3-3-3-3-3-3-3-0-0-0-0-0-0-0-0-|
E-5-5-5-5-5-5-5-5-3-3-3-3-3-3-3-3-1-1-1-1-1-1-1-1-----------------|
Tap to rate this tab
 
# A B C D E F G H I J K L M N O P Q R S T U V W X Y Z