Song name
# A B C D E F G H I J K L M N O P Q R S T U V W X Y Z

Misc Unsigned Bands - Pinkwinter - Temple Of Lies tab

Temple of lies - pinkwinter

Tuning - EADGBe

 Intro
e|---------------------------------------|
B|---------------------------------------|
G|---------------------------------------|
D|-88xx-55xx-88553355-88xx-55xx-88553355-|
A|-88xx-55xx-88553355-88xx-55xx-88553355-|
E|-66xx-33xx-66331133-66xx-33xx-66331133-|

 |-------------------------------|
 |-------------------------------|
 |-------------------------------|
 |-8-8888-3-3333-10-10101010-888-|
 |-8-8888-3-3333-10-10101010-888-|
 |-6-6666-1-1111-8 -8 8 8 8 -666-|

 1st Verse
 |-----------------------------------------------------------|
 |-----------------------------------------------------------|
 |-------------------------------------5555555555------------|
 |-5555555555555/8\5555555--8888888888-5555555555-5555555555-|
 |-5555555555555/8\5555555--8888888888-3333333333-5555555555-|
 |-3333333333333/6\3333333--6666666666------------3333333333-|

 |-----------------------------------------|
 |-----------------------------------------|
 |-----------------------------------------|
 |-8888888888888888-55-3333333333333333-55-|
 |-8888888888888888-55-3333333333333333-55-|
 |-6666666666666666-33-1111111111111111-33-|

 |----------------------------------------------|
 |----------------------------------------------|
 |----------------------------------------------|
 |-10101010101010101010101010101010-88-55555555-|
 |-10101010101010101010101010101010-88-55555555-|
 |- 8 8 8 8 8 8 8 8 8 8 8 8 8 8 8 8-66-33333333-|

 Chorus
 |-----------------------------------------------------------------|
 |-----------------------------------------------------------------|
 |-----------------------------------------------------------------|
 |-88-88-88-88-33-33-33-33-1010--1010--1010--1010-88--55-----------|         
 |-88888888888-33333333333-1010101010101010101010-888-555555555555-|
 |-66666666666-11111111111- 8 8 8 8 8 8 8 8 8 8 8-666-333333333333-|

 2nd Guitar plays this during chorus and beginning of fill
 |---------------|
 |---------------|
 |-------------5-|
 |---------5-7---|
 |-----5-7-------|
 |-5-7-----------|

 2nd Guitar then plays this during the fill
 |------------------------------------------|
 |------------------------------------------|
 |------------------------------------------|
 |-8--8--8--5--5--5--5--8--8--8--5--5--5--5-|
 |-8--8--8--5--5--5--5--8--8--8--5--5--5--5-|
 |-6--6--6--3--3--3--3--6--6--6--3--3--3--3-|

 Fill
 |----------------------------------------------------------------|
 |----------------------------------------------------------------|
 |-----------------------------------------------7----------------|
 |-888-555-88553355-888-555-88553355-88--88--88--7--55--55--55--5-|
 |-888-555-88553355-888-555-88553355-88--88--88--5--55--55--55--5-|
 |-666-333-66331155-666-333-66331133-66--66--66-----33--33--33--3-|

 |---------------------------------------------------------------------|
 |---------------------------------------------------------------------|
 |-----------------7---------------------------------------------------|
 |-88--88--88--88--7--55--55--55--5-3333355555--10--8-5555553333355555-|
 |-88--88--88--88--5--55--55--55--5-3333355555--10--8-5555553333355555-|
 |-66--66--66--66-----33--33--33--3-1111133333-- 8--6-333333111113333
 
 |-----------------------------------|
 |-----------------------------------|
 |-----------------------------------|
 |-10--8-5555533335555--10--8-555555-|
 |-10--8-5555533335555--10--8-555555-|
 |- 8--6-3333311113333-- 8--6-333333-|

 Bridge
 |---------------------|
 |---------------------|
 |-8888----------------|
 |-8888888855555555-X4-|
 |-6666888855555555----|
 |-----666633333333----|

 2nd Guitar comes in with
 |---------------------|
 |---------------------|
 |-8888----------------|
 |-8888888855555555-X2-|
 |-6666888855555555----|
 |-----666633333333----|

 2nd Verse
 |----------------------------------------------------------------------|
 |----------------------------------------------------------------------|
 |---------55555555-------------------------------55555555--------------|
 |-888888885555555555555555-10-8-55555555-888888885555555555555555-10-8-|
 |-888888883333333355555555-10-8-55555555-888888883333333355555555-10-8-|
 |-66666666--------33333333- 8-6-33333333-66666666--------33333333- 8-6-|

 |-------------------------------------------------|
 |-------------------------------------------------|
 |------------------55555555-----------------------|
 |-55555555-888888885555555555555555-10-8-55555555-|
 |-55555555-888888883333333355555555-10-8-55555555-|
 |-33333333-66666666--------33333333- 8-6-33333333-|

 Bridge
 |-----------------------------------------|
 |-----------------------------------------|
 |-----------------------------------------|
 |-1212121212121212-888--101010--55555555--|
 |-1212121212121212-888--101010--55555555--|
 |-1010101010101010-666-- 8 8 8--33333333--|

 |---------------------------------------------|
 |---------------------------------------------|
 |---------------------------------------------|
 |-1212121212121212-888--101010--55555/8\55555-|
 |-1212121212121212-888--101010--55555/8\55555-|
 |-1010101010101010-666-- 8 8 8--33333/6\33333-|

 Chorus
 |-----------------------------------------------------------------|
 |-----------------------------------------------------------------|
 |-----------------------------------------------------------------|
 |-88-88-88-88-33-33-33-33-1010--1010--1010--1010-88--55-----------|         
 |-88888888888-33333333333-1010101010101010101010-888-555555555555-|
 |-66666666666-11111111111- 8 8 8 8 8 8 8 8 8 8 8-666-333333333333-|

 Play during Bass Fill
 |----------------------------------------------------------------|
 |----------------------------------------------------------------|
 |----------------------------------------------------------------|
 |----------------------------------------------------------------|
 |-5555555555101010101010108888888-555555555555555-10101010101010-|
 |-3333333333 8 8 8 8 8 8 86666666-333333333333333- 8 8 8 8 8 8 8-|

 |-----------------------------------------------------------------|
 |-----------------------------------------------------------------|
 |-----------------------------------------------------------------|
 |--------------5--5--5----10----10----10--8--8--8--5--5--55555555-|
 |-5555555555-5555555551010101010101010108888888885555555555555555-|
 |-3333333333-333333333 8 8 8 8 8 8 8 8 86666666663333333333333333-|

 2nd guitar comes in with this during fill
 |------------------------------------------|
 |-3--3--3--8--8--8--6--6--6--3--3--3--3--3-|
 |------------------------------------------|
 |------------------------------------------|
 |------------------------------------------|
 |------------------------------------------|
 
 Outro
 |-----------------------------------------------------------|
 |-----------------------------------------------------------|
 |-77777777--------------------------------------------------|
 |-777777778888888855555555--888--333--5555--888--333--55555-|
 |-555555558888888855555555--888--333--5555--888--333--55555-|
 |---------6666666633333333--666--111--3333--666--111--33333-|

 |------------------|
 |------------------|
 |------555---------|
 |-888--555--333--5-|
 |-888--333--333--5-|
 |-666-------111--3-|
Tap to rate this tab
 
# A B C D E F G H I J K L M N O P Q R S T U V W X Y Z