Song name
# A B C D E F G H I J K L M N O P Q R S T U V W X Y Z

Misc Unsigned Bands - Fuel Injected - Gasoline In My Veins tab

|------------------------------|
|------------0-----------------|
|------------------------------|  x2
|-------4--------4-------------|
|---2--------------------------|
|------------------------------|

|------------------------------|
|------------0-----------------|
|------------------------------|  
|-------4--------4-------------|
|------------------------------|
|----3-------------------------|

|------------------------------|
|------------0-----------------|
|------------------------------|  
|-------4--------4-------------|
|---0--------------------------|
|------------------------------|

this is my band and we are not officially started yet
www.fuel-injected.com
Tap to rate this tab
# A B C D E F G H I J K L M N O P Q R S T U V W X Y Z