Song name
# A B C D E F G H I J K L M N O P Q R S T U V W X Y Z

Misc Unsigned Bands - Serpentine - Take It All Away tab

Band: Serpentine
Song: Take it all Away

I found this song and didnt think it was too bad. Was extremely bored so I decided to
tab er out. Guitar is pretty fun anyways. I assume these guys are unsigned or something
because ive never heard of them and theres no website or anything so I left em as unsigned.

Intro: (Guitar 1)
E---------------------------------|
B---------------------------------|
G---------------------------------|
D--2-----2-2--------2-----2-2-----|
A--2-----2-2--------2-----2-2-----|
E--0-X-X-0-0--------0-X-X-0-0-----|
PM===========      ==========


Intro: (Guitar 2)
E----------------------------------------------|
B----------------------------------------------|
G-------------------0---------------0--2h4p2p0-|
D-2^(3)^2-----2-2-------------2-2--------------|
A-------------2--2h3---3-3-2--2--2h3-----------|
E-------------0---------------0----------------|
                    PM =====

================================================================

Verse: (Guitar 1)

Same as Intro

No Guitar 2

=================================================================

Pre-Chorus: (Guitar 1)
E--------------------------------------|
B--------------------------------------|
G--------------------------------------|
D--2~-----\9~---------2~---------\9~---|
A--2~-----\7~---------2~---------\7~---|
E--0~------0----------0~----------0----|


Pre-Chorus: (Guitar 2)
E--------------------------------------|
B--------------------------------------|
G----------\12---7-7h9-----\12--7-h9---|
D--------------------------------------|
A--------------------------------------|
E--------------------------------------|

===================================================================

Chorus: (Both Guitars)
E--------------------------------------------------------------------|
B--------------------------------------------------------------------|
G----------5--5-5---------------------------------5--5-5-------------|
D-2-2-2-2--5--5-5--5-5-5-5---7-7-7-7----2-2-2-2---5--5-5--5-5--4-3\2-|
A-2-2-2-2--3--3-3--5-5-5-5---7-7-7-7----2-2-2-2---3--3-3--5-5--4-3\2-|
E-0-0-0-0----------3-3-3-3---5-5-5-5----0-0-0-0-----------3-3--2-1\0-|

Post-Chorus?: (Play Chorus as rythym
E--------------------------------------------------------------------------
B--------------------------------------------------------------------------
G--------------------------------------------------------------------------
D--7--77-7h9-\12-1212-12-10----9-9h10p9----7--77-7h9-9-9-12-15p14-15p14-12\
A----------------------------12-------------------------------------------
E--------------------------------------------------------------------------
Con't
E--------------------------------------------------------------------------|
B--------------------------------------------------------------------------|
G--------------------------------------------------------------------------|
D--7-77-7h9-9~--\12-12-12-10----9-9h10p9---7--77-7h9-9-\12-10---9-10-9-7-5~|
A-----------------------------12-------------------------------12----------|
E--------------------------------------------------------------------------|

============================================================================

Verse 2: (Guitar 1)

E---------------------------------|
B---------------------------------|
G---------------------------------|
D--2-----2-2--------2-----2-2-----|
A--2-----2-2--------2-----2-2-----|
E--0-X-X-0-0--------0-X-X-0-0-----|
PM===========      ==========

(Guitar 2)
E----------------------------------------------|
B----------------------------------------------|
G-------------------0---------------0--2h4p2p0-|
D-2^(3)^2-----2-2-------------2-2--------------|
A-------------2--2h3---3-3-2--2--2h3-----------|
E-------------0---------------0----------------|
                    PM =====

==========================================================================

Pre-Chorus 2: (Guitar 1)

E--------------------------------------|
B--------------------------------------|
G--------------------------------------|
D--2~-----\9~---------2~---------\9~---|
A--2~-----\7~---------2~---------\7~---|
E--0~------0----------0~----------0----|

(Guitar 2)
E--------------------------------------|
B--------------------------------------|
G----------\12---7-7h9-----\12--7-h9---|
D--------------------------------------|
A--------------------------------------|
E--------------------------------------|

==========================================================================


Chorus: (Both Guitars)
E--------------------------------------------------------------------|
B--------------------------------------------------------------------|
G----------5--5-5---------------------------------5--5-5-------------|
D-2-2-2-2--5--5-5--5-5-5-5---7-7-7-7----2-2-2-2---5--5-5--5-5--4-3\2-|
A-2-2-2-2--3--3-3--5-5-5-5---7-7-7-7----2-2-2-2---3--3-3--5-5--4-3\2-|
E-0-0-0-0----------3-3-3-3---5-5-5-5----0-0-0-0-----------3-3--2-1\0-|



Post-Chorus/First Solo :  
E--------------------------------------------------------------------------
B--------------------------------------------------------------------------
G--------------------------------------------------------------------------
D--7--77-7h9-\12-1212-12-10----9-9h10p9----7--77-7h9-9-9-12-15p14-15p14-12\
A----------------------------12-------------------------------------------
E--------------------------------------------------------------------------
Con't
E----------------------------------------------------------------------|
B----------------------------------------------------------------------|
G----------------------------------------------------------------------|
D--7-77-7h9-9~--\12-12-12-10----9-9h10p9---7--77-7h9-9-\12-10-----9~~~-|
A-----------------------------12-------------------------------12------|
E----------------------------------------------------------------------|

Solo #1: (Guitar 1)
E---------------------------------------------------15--12-12-14-15-15-
B-------------------------------------------------15------------------- 
G--------------------12-14^(16)ub-14-12~--12-14-15---------------------
D---------------12-14--------------------------------------------------
A---------12-14--------------------------------------------------------
E---\\\\---------------------------------------------------------------

Con't
E--17-17-17--X-19--17--15--17^(18)^17\--/19----17---15-17-15-----------
B-------------------------------------------------------------17-15-17-
G----------------------------------------------------------------------
D----------------------------------------------------------------------
A----------------------------------------------------------------------
E----------------------------------------------------------------------

Con't
E-15------15-17--19-19-19p17--15-15-15h17--15--18^(19)-18^(19)---15~~~-|
B-----17---------------------------------------------------------------|
G----------------------------------------------------------------------|
D----------------------------------------------------------------------|
A----------------------------------------------------------------------|
E----------------------------------------------------------------------|

Solo #2: (Guitar 2)

I couldnt figure out the second solo because it was too...well...wierd. The first few
notes sound okay but after that it becomes really sloppy sounding guitar. Listen to the
song to see what I mean.

Bridge: (Guitar 1):
E----------------------------------------------------------------|
B----------------------------------------------------------------|
G----------------------------------------------------------------|
D-2--2-2--2---5~----5--5-5--5---7-----2--2-2--3~---5--5-5--4-3\2-|
A-2--2-2--2---3~----5--5-5--5---7-----2--2-2--5~---5--5-5--4-3\2-|
E-0--0-0--0---------3--3-3--3---5-----0--0-0-------3--3-3--2-1\0-|

Then back to Chorus' and that would be it!.
Tap to rate this tab
 
# A B C D E F G H I J K L M N O P Q R S T U V W X Y Z