Song name
# A B C D E F G H I J K L M N O P Q R S T U V W X Y Z

Misc Unsigned Bands - Zero Degrees - Better Off tab

----------------------------VERSE--(4X)-------------------------------

e--------15-----------15----------------15---------------15-----------|
B---12-12--12-12---12---12-12-----12--12--12--12-----12----12--12-----|
G--0--0------0--0-0--0----0-----14--14------14--14-14--14----14-------|
D---------------------------------------------------------------------|
A---------------------------------------------------------------------|
D---------------------------------------------------------------------|

e--------15-----------15-------------15-------------------------------|
B-----12---12-12---12---12-12-----12---12-12--12-13p12-12-------------|
G----0--0----0--0----0----0------0--0----0--0---0-----0---------------|
D--14------------14-------------0------------0------------------------|
A---------------------------------------------------------------------|
D---------------------------------------------------------------------|

----------------------------CHORUS--(4X)------------------------------

e---------------------------------------------------------------------|
B---------------------------------------------------------------------|
G----------7-------5---------------7-------5--------------------------|
D--5-------7-(8X)--5-(8X)--5-------7-(3X)--5-(3X)---------------------|
A--5-(8X)--5-------3-------5-(2X)--5-------3--------------------------|
D--5-----------------------5------------------------------------------|

------------------------------BRIDGE----------------------------------

e---------------------------------------------------------------------|
B---------------------------------------------------------------------|
G----------5-------7--------------------------------------------------|
D--2-------5-(8X)--7-(8X)--5------------------------------------------|
A--2-(8X)--3-------5-------5-(8X)-------------------------------------|
D--2-----------------------5------------------------------------------|

e---------------------------------------------------------------------|
B---------------------------------------------------------------------|
G----------5-------7---------------7-------5--------------------------|
D--2-------5-(8X)--7-(8X)--5-------7-(3X)--5-(3X)---------------------|
A--2-(8X)--3-------5-------5-(2X)--5-------3--------------------------|
D--2-----------------------5------------------------------------------|


SONG LAYOUT:

VERSE
CHORUS
VERSE
CHORUS
BRIDGE
CHORUS
VERSE

WHEN PLAYING THE VERSE AT THE END OF THE SONG, END THE LAST NOTE ON THE e STRING 15th FRET......
Tap to rate this tab
# A B C D E F G H I J K L M N O P Q R S T U V W X Y Z