Song name
# A B C D E F G H I J K L M N O P Q R S T U V W X Y Z

Misc Unsigned Bands - Army With Harmany - Crazy tab

Intro-
e--------------------------------------|
b-4--4--4--4--5--5--5--5---------------|
g--4--4--4--4--4--4--4--4--------------| 4x
d--------------------------------------|
a--------------------------------------|
e--------------------------------------|
Bridge-
e--------------------------------------|
b-4~-----------------------------------|
g-4~-----------------------------------|
d---9-9-9-x-7-7-7-x-5-5-5-x-4-4-4-x-x--|
a---9-9-9-x-7-7-7-x-5-5-5-x-4-4-4-x-x--| 4x
e---7-7-7-x-5-5-5-x-3-3-3-x-2-2-2-x-x--|
Verse 1- (Palm Muted)
e-------------------------------------------------|
b-------------------------------------------------|
g-7-7-7-7-7-7-7-7-6-6-6-6-6-6-6-6-4-4-4-4-4-4-4-4-|
d-7-7-7-7-7-7-7-7-6-6-6-6-6-6-6-6-4-4-4-4-4-4-4-4-|
a-5-5-5-5-5-5-5-5-4-4-4-4-4-4-4-4-2-2-2-2-2-2-2-2-|
e-------------------------------------------------|
                                                  4x
e------------------------------------------------|
b------------------------------------------------|
g------------------------------------------------|
d-4-4-4-4-4-4-4-4--------------------------------|
a-4-4-4-4-4-4-4-4--------------------------------|
e-2-2-2-2-2-2-2-2--------------------------------|
Chourus 1-
e------------------------------------------------|
b------------------------------------------------|
g---------------7-7-7-7-7-7-7-7------------------|
d-5-5-5-5-5-5-5-7-7-7-7-7-7-7-7-7-7-7-7-7-7-7-7--|
a-5-5-5-5-5-5-5-5-5-5-5-5-5-5-5-7-7-7-7-7-7-7-7--|
e-3-3-3-3-3-3-3-----------------5-5-5-5-5-5-5-5--|
                                                  4x
e------------------------------------------------|
b------------------------------------------------|
g-5-5-5-5-5-5-5-5--------------------------------|
d-5-5-5-5-5-5-5-5--------------------------------|
a-3-3-3-3-3-3-3-3--------------------------------|
e------------------------------------------------|
Bridge
e--------------------------------------|
b-4~-----------------------------------|
g-4~-----------------------------------|
d---9-9-9-x-7-7-7-x-5-5-5-x-4-4-4-x-x--|
a---9-9-9-x-7-7-7-x-5-5-5-x-4-4-4-x-x--| 4x
e---7-7-7-x-5-5-5-x-3-3-3-x-2-2-2-x-x--|
Verse 2 (Palm Muted)
e-------------------------------------------------|
b-------------------------------------------------|
g-7-7-7-7-7-7-7-7-6-6-6-6-6-6-6-6-4-4-4-4-4-4-4-4-|
d-7-7-7-7-7-7-7-7-6-6-6-6-6-6-6-6-4-4-4-4-4-4-4-4-|
a-5-5-5-5-5-5-5-5-4-4-4-4-4-4-4-4-2-2-2-2-2-2-2-2-|
e-------------------------------------------------|
                                                  4x
e------------------------------------------------|
b------------------------------------------------|
g------------------------------------------------|
d-4-4-4-4-4-4-4-4--------------------------------|
a-4-4-4-4-4-4-4-4--------------------------------|
e-2-2-2-2-2-2-2-2--------------------------------|
Chorous 2
e------------------------------------------------|
b------------------------------------------------|
g---------------7-7-7-7-7-7-7-7------------------|
d-5-5-5-5-5-5-5-7-7-7-7-7-7-7-7-7-7-7-7-7-7-7-7--|
a-5-5-5-5-5-5-5-5-5-5-5-5-5-5-5-7-7-7-7-7-7-7-7--|
e-3-3-3-3-3-3-3-----------------5-5-5-5-5-5-5-5--|
                                                  4x
e------------------------------------------------|
b------------------------------------------------|
g-5-5-5-5-5-5-5-5--------------------------------|
d-5-5-5-5-5-5-5-5--------------------------------|
a-3-3-3-3-3-3-3-3--------------------------------|
e------------------------------------------------|
Bridge
e--------------------------------------|
b-4~-----------------------------------|
g-4~-----------------------------------|
d---9-9-9-x-7-7-7-x-5-5-5-x-4-4-4-x-x--|
a---9-9-9-x-7-7-7-x-5-5-5-x-4-4-4-x-x--| 4x
e---7-7-7-x-5-5-5-x-3-3-3-x-2-2-2-x-x--|
Verse 3 (Palm Muted)
e-------------------------------------------------|
b-------------------------------------------------|
g-7-7-7-7-7-7-7-7-6-6-6-6-6-6-6-6-4-4-4-4-4-4-4-4-|
d-7-7-7-7-7-7-7-7-6-6-6-6-6-6-6-6-4-4-4-4-4-4-4-4-|
a-5-5-5-5-5-5-5-5-4-4-4-4-4-4-4-4-2-2-2-2-2-2-2-2-|
e-------------------------------------------------|
                                                  4x
e------------------------------------------------|
b------------------------------------------------|
g------------------------------------------------|
d-4-4-4-4-4-4-4-4--------------------------------|
a-4-4-4-4-4-4-4-4--------------------------------|
e-2-2-2-2-2-2-2-2--------------------------------|
Chorous 3
e------------------------------------------------|
b------------------------------------------------|
g---------------7-7-7-7-7-7-7-7------------------|
d-5-5-5-5-5-5-5-7-7-7-7-7-7-7-7-7-7-7-7-7-7-7-7--|
a-5-5-5-5-5-5-5-5-5-5-5-5-5-5-5-7-7-7-7-7-7-7-7--|
e-3-3-3-3-3-3-3-----------------5-5-5-5-5-5-5-5--|
                                                  4x
e------------------------------------------------|
b------------------------------------------------|
g-5-5-5-5-5-5-5-5--------------------------------|
d-5-5-5-5-5-5-5-5--------------------------------|
a-3-3-3-3-3-3-3-3--------------------------------|
e------------------------------------------------|
Outro/Bridge Thing
e--------------------------------------|
b-4--4--4--4--5--5--5--5---------------|
g--4--4--4--4--4--4--4--4--------------| 4x
d--------------------------------------|
a--------------------------------------|
e--------------------------------------|

e--------------------------------------|
b-4~-----------------------------------|
g-4~-----------------------------------|
d---9-9-9-x-7-7-7-x-5-5-5-x-4-4-4-x-x--|
a---9-9-9-x-7-7-7-x-5-5-5-x-4-4-4-x-x--| 4x
e---7-7-7-x-5-5-5-x-3-3-3-x-2-2-2-x-x--|


This so song is by a band Called Army With Harmany which is an underground band but is
signing with a record company this summer and their album is expected to be out this
upcoming fall (06) This is their single called "Crazy" and is a really good song to
play on your guitar.
If you have any questions on who they are please feel free to email me at Blink181greenday@yahoo.com

you can visit ther website at http://www.purevolume.com/armywithharmany
Tap to rate this tab
 
# A B C D E F G H I J K L M N O P Q R S T U V W X Y Z