Song name
# A B C D E F G H I J K L M N O P Q R S T U V W X Y Z

Misc Unsigned Bands - Half Awake - Before Ashes To Dust tab

BEFORE ASHES TO DUST
INTRO - (two acoustic guitars-one plays chords above tabs)
 C                     G     D       Cadd9               G
|----------3p1-----------------2---------------------------------------|
|--------------1h3p1---------3---3---------3/5/3-----------------------|
|--------0-----------0-----0-------2-----0-------0-------------------0-|
|----0h2-----------------0-------------2-----------0h2p0-------0-0h2---|
|-3----------------------------------3---------------------0h2---------|
|----------------------3---------------------------------3-------------|
 C                                    C         Dsus2 D       D
|-----------------|                 |-0-0-0-0-0-3-2---2-2-2---2-2-2-|
|-3p2p1p0-1-------|                 |-1-1-1-1-1-3-3---3-3-3---3-3-3-|
|-----------0-----| it all reapeats |-0-0-0-0-0-2-2---2-2-2---2-2-2-|
|-------------2---|                 |-2-2-2-2-2-0-0---0-0-0---0-0-0-|
|---------------3-|                 |-3-3-3-3-3---------------------|
|-----------------|                 |-x-x-x-x-x---------------------|
  C       Em    G
|-0-0-0-0-0-0-0-3-|
|-1-1-1-1-0-0-0-0-|
|-0-0-0-0-0-0-0-0-|
|-2-2-2-2-2-2-2-0-|
|-3-3-3-3-2-2-2-2-|
|-x-x-x-x-0-0-0-3-|

VERSE 1
 C                G             Cadd9          Em
|---------0-----------------3-----------0-----------------0-|
|-------1---1---1---------0-----------3---3---3---------0---|
|-----0-------0---------0-----------0-------0---------0-----| x 2
|---2-----------------0-----------2-----------------2-------|
|-3-----------------2-----------3-----------------2---------|
|-----------------3-----------------------------0-----------|

INTRO

VERSE 1

PRE-CHORUS
|-----------------------------------------------3-|
|---------------3p2p1p0-1-----------------1h3p1-1-|
|-------------0-----------0---------0h2h4---------|
|-------0-0h2---------------2---0h2---------------|
|---0h2-----------------------3-------------------|
|-3-----------------------------------------------|

CHRORUS
            C     G        Dsus2     D
Oohho I'm sorry, for the person, I became
            C   G                         Dsus2   D
And don't worry, cause I'm the only one, Left to blame
Am        A5          Em                        E
My fire's into ashes, that's all that's left of me
Am         A5              Em                   E
Every love has crashes and I pray that you will see
               Dsus2        D           E Em   G
That we should move on from this, cause I need you
          Dsus2              D
From that very first good by kiss
       Cadd9      G
to the very last "I love you!"
   C          G
Oh relight my flame
Dsus2         D
Make me whole again

Before ashes to dust . . .

VERSE TWO (faster and upbeat) - both guitars play the chords as in verse 1

PRE-CHORUS

CHORUS

SOLO
|----------------------------------------------5-7/9-7-9/12~--12p11p10p0----|
|----------------------------------------5h7p5---------------------------10-|
|--------------------------------5~--5h7------------------------------------|
|------------2---2-2/5-3~--3-5/7--------------------------------------------|
|-3bdr-3-2-3---3------------------------------------------------------------|
|---------------------------------------------------------------------------|

|------------------------------------------------------------------|
|------------------------------------------------------------------|
|------------------------------------------------------------------|
|-----7bd/su-------7bd/sd-----7brbrbrbr-7h9p7-9/11-9-9p8p7p0-7~/sd-|
|-7h9----------7h9--------7h9--------------------------------------|
|------------------------------------------------------------------|

|-----------------------------------------------------------------------|
|-----------------------------------------------------------------------|
|-12-13-15-13~--12~--------------12-13-15-13-12h13p12-12h13h15-13-15/17-|
|---------------------15brbrbrbr----------------------------------------|
|-----------------------------------------------------------------------|
|-----------------------------------------------------------------------|

|------------17p16p15-12h15p12----12-------------17/15-------19-|
|-17-17/19~--------------------15----15-12-15/17-------15/17----|
|---------------------------------------------------------------|
|---------------------------------------------------------------|
|---------------------------------------------------------------|
|---------------------------------------------------------------|

BRIDGE - both guitars - Am, A5, Em, E

CHORUS

OUTRO - same as intro
Tap to rate this tab
 
# A B C D E F G H I J K L M N O P Q R S T U V W X Y Z