Song name
# A B C D E F G H I J K L M N O P Q R S T U V W X Y Z

Misc Unsigned Bands - Neighbours Pain - Talent tab

Song: Talent
Artist: Neighbours Pain (www.8ung.at/benedikt.wagner/neighbours_pain/start_np2.htm)
Album: Probelauf
Tabbed by: Ossi


Main Riff (played as intro,verse and outro):

e:|-----------3--3/5----5--3-------------------------|
b:|--------1----------------------1-3--3/5--3--1-----|
g:|-----2------------0---------2------------------2--|
d:|--3-----------------------------------------------|
a:|--------------------------------------------------|
e:|--------------------------------------------------|

verse 1:
Keine Plattenfirma will uns haben
alle sagen wir sind viel zu laut
Keine Menschen kennen unsre namen
alle sagen wir sehn scheisse aus
Menschen sehn uns an und tuscheln
halten uns für Abschaum des Systems
wir sind eben keine süße Boygroup
Kämpfen mit viel Geist gegen das System

Chorus:
F          C               G
Und trotzdem haben wir Talent
Und trotzdem haben wir Talent
Ich weiß dass uns bald jeder kennt, bald jeder unsre Namen nennt
denn wir sind jung und haben Talent

verse 2:
Kriegen keinen Ruhm wir gehen studieren
wollen endlich Platten produzieren
machen Musik wies uns gefällt
und bald kennt uns die ganze Welt


Intro (Main Riff x4)
verse 1 (Main Riff x8)
chorus
Interlude (Main Riff x2)
verse 2 (Main Riff)
Chorus x2
Outro (Main Riff x6)


Chords used:
    F  C  G
e:|---------|
b:|---------|
g:|----5----|
d:|-3--5--5-|
a:|-3--3--5-|
e:|-1-----3-|
Tap to rate this tab
 
# A B C D E F G H I J K L M N O P Q R S T U V W X Y Z