Song name
# A B C D E F G H I J K L M N O P Q R S T U V W X Y Z

Misc Unsigned Bands - Zealous Twain - Calling tab

Help us improve GuitareTab! Take a short survey!
Highlighted       Show chord diagrams
Hi guys, i'm Steve from Zealous Twain and here's our official first song. It's also the
first song i've wrote and tabbed. So...enjoy!


[INTRO] 


  Em                     C                   G
e-------------------------------------------------------------------|
B------2---2---2---2---------1---1---1---1------0---0---0---0-------|
G----2---2---2---2---------0---0---0---0------0---0---0---0---------|
D--2---2---2---2---------2---2---2---2------0---0---0---0-----------|
A-------------------------------------------------------------------|
E-------------------------------------------------------------------|

    D
e-------------------------------------------------------------------|
B------3---3---3----------------------------------------------------|
G----2---2---2---2--------------------------------------------------|
D--0---0---0--------------------------------------------------------|
A-------------------------------------------------------------------|
E-------------------------------------------------------------------|


Slow strumming

Em, C, G, D


Em                     C
ooooooooooooooooooooh, ooooooooooooooooooooooooh

G                      D
ooooooooooooooooooooh, ooooooooooooooooooooooooh

 [VERSE]

Em                                     C
From the moment i first saw your face, and looked into your eyes

G                       D
It was then i realised, there could be no comprimise

Em                                C
To approach you would be suicide, i'd leave myself nowhere to hide

G                              D
You'd become a distant memory, this would become the day i Cried

[CHORUS]

Am  Em
I,  don't want you to go

G    D
I----I'm calling you

Am  Em
I,  don't want you to know

G    D
I----I'm falling for you


 [VERSE]

Em                              C
You have such a beautiful face, and i can't resist your smile

G                          D
When we are together life, it seems so worthwhile

Em                               C
Hand in hand, we walk unplanned, i follow you and your command

G                           D
Together we're untouchable, we're free to roam the land


[CHORUSE]

Am  Em
I,  don't want you to go

G    D
I----I'm calling you

Am  Em
I,  don't want you to know

G    D
I----I'm falling for you


Am  Em
I,  don't want you to go

G                  D
I----(I'm Calling) I'm calling you

Am  Em
I,  don't want you to know

G                  D
I----(I'm Falling) I'm falling for you


[OUTRO]


  Em                     C                   G
e-------------------------------------------------------------------|
B------2---2---2---2---------1---1---1---1------0---0---0---0-------|
G----2---2---2---2---------0---0---0---0------0---0---0---0---------|
D--2---2---2---2---------2---2---2---2------0---0---0---0-----------|
A-------------------------------------------------------------------|
E-------------------------------------------------------------------|

    D
e-------------------------------------------------------------------|
B------3---3---3----------------------------------------------------|
G----2---2---2---2--------------------------------------------------|
D--0---0---0--------------------------------------------------------|
A-------------------------------------------------------------------|
E-------------------------------------------------------------------|

Strum softly

Em.


Related for Zealous Twain - Calling tab