Guitaretab - guitar tabs
Song name
# A B C D E F G H I J K L M N O P Q R S T U V W X Y Z

Misc Unsigned Bands - Memories From A Coma - Always Be tab

This Tab Misses out the solo as it is soon to be included in
a different page including the outro.
MEMORIES FROM A COMA     RULE!!!!

Intro
|-----------------------------------------------------------------------------|
|-----------------------------------------------------------------------------|
|-----------------------------------------------------------------------------|
|---2-2-2-2-2-2-5-5-5-5-5-5-2-2-2-2-2-2-5-5-5-5-5-5-7-7-7-7-7-7-9-9-9-9-9-9---|
|---0~~~~~~~~~~~0~~~~~~~~~~0~~~~~~~~~~~~0~~~~~~~~~~~0~~~~~~~~~~~0~~~~~~~~~~~--|
|-----------------------------------------------------------------------------|

|----------------------------------------------------------------------------|
|----------------------------------------------------------------------------|
|----------------------------------------------------------------------------|
|---12-12-12-12-12-12-13-13--13--13--13--13----------------------------------|
|---0~~~~~~~~~~~~~~~~~0~~~~~~~~~~~~~~~~~~~~~---------------------------------|
|----------------------------------------------------------------------------|

Chourus
|------------------------------------------------|   X 2
|------------------------------------------------|
|--2222-5555-7777-5555----2222-5555-7777-9999----|
|--2222-5555-7777-5555----2222-5555-7777-9999----|
|--0000-0000-0000-0000----0000-0000-0000-0000----|
|------------------------------------------------|
[ Tab from: http://www.guitaretab.com/m/misc-unsigned-bands/67599.html ]
Interlude
|-------------------------------------|  X 2
|-------------------------------------|
|--999-9777-7555-5222-----------------|
|--999-9777-7555-5222-----------------|
|--000-0000-0000-0000-----------------|
|-------------------------------------|

Verse
|--------------------|
|--------------------|
|-2222--4444--6666---|
|-3333--5555--7777---|
|-3333--5555--7777---|
|--------------------|

Interlude (1)
|-------------------------------------|
|-------------------------------------|
|--999-9777-7555-5222-2-2-2-2-2-2-----|
|--999-9777-7555-5222-2-2-2-2-2-2-----|
|--000-0000-0000-0000-0-0-0-0-0-0-----|
|-------------------------------------|

Chourus (1)
This is really the same chourus but with this peice played on top of the other guitar; 
should be played quite fast but still in rythm with the drummer:
|------------------------------------------------------------------------------|
|-7-7-7-7-9-9-9-9-10-10-10-10-9-9-9-9-7-7-7-7-9-9-9-9-10-10-10-10--11-11-11-11-|
|-0-------0-------0-----------0-------0-------0-------0-----------0------------|
|------------------------------------------------------------------------------|
|------------------------------------------------------------------------------|
|------------------------------------------------------------------------------|


Riff 1
Chourus
Interlude
Verse
Interlude
Chourus
Interlude (1)
Verse
Interlude (1)
Chourus (1)

 2006  Memories From A Coma
Related for Memories From A Coma - Always Be tab