Song name
# A B C D E F G H I J K L M N O P Q R S T U V W X Y Z

Misc Unsigned Bands - More Than Inuph - To Not Believe tab

Song: To Not Believe
Band: More Than Inuph
Tabbed by: Timmy
Standard Tuning
x=mute
r=ring/hold

Intro: x2
e|-0----------------------------|
 |--0-4-0-2-0-4-0---------------|
 |------------------------------|
 |------------------------------|
 |------------------------------|
E|------------------------------|

Verses: strum each 4x (last 3 chords strum 2x each)
e|---------------------------------------|
 |---------------------------------------|
 |-5-------5-------5-------5-------------|
 |-5-5-3-3-5-5-2-3-5-5-7-3-5-5-7-3-5-7---|
 |-3-5-3-3-3-5-2-3-3-5-7-3-3-5-7-3-5-7---|
E|---3-1-1---3-0-1---3-5-1---3-5-1-3-5---|

Chorus:
e|-22222-------xxxxx-x-2---22222-------xxxxx-x-2--|
 |-33333-22222-33333-3-3---33333-22222-33333-3-3--|
 |-22222-22222-00000-0-2---22222-22222-00000-0-2--|
 |-------22222-------------------22222------------|
 |------------------------------------------------|
E|------------------------------------------------|

e|-22222---------x-x-x-x-3-2-0-x-xr---|
 |-33333-2-2-2-2-3-3-3-3-3-2-3-2-3r---|
 |-22222-2-2-2-2-0-0-0-0-------2-0r---|
 |-------2-2-2-2---------------2------|
 |------------------------------------|
E|------------------------------------|

After last chorus, end with: (strum lightly with thumb)

e|------x--2r----------|
 |-----3------3r-------|
 |----2----------------|
 |---0-----------------|
 |--0------------------|
E|-0-------------------|
Tap to rate this tab
# A B C D E F G H I J K L M N O P Q R S T U V W X Y Z