Song name
# A B C D E F G H I J K L M N O P Q R S T U V W X Y Z

Misc Unsigned Bands - The Narwhals - Paisley Skies tab

Help us improve GuitareTab! Take a short survey!
Tuning: Standard


Chords:G#,D#,C# throughout song.




Lead:

Intro/Chorus

e|--------------------------------------------------------------------------
-|
B|---------------------------------------------------------------------------|
G|----13------13----13----15^------13-----13----13---15^------13------13-----|
D|---------------------------------------------------------------------------|
A|---------------------------------------------------------------------------|
E|---------------------------------------------------------------------------|

e|---------------------------------------------------------------------------|
B|---------------------------------------------------------------------------|
G|------13-------15^------12------12-----12-----12-----13------13----REPEAT--|
D|---------------------------------------------------------------------------|
A|---------------------------------------------------------------------------|
E|---------------------------------------------------------------------------|
    Verse:
e|---------------------------------------------------------------------------|
B|---------------------------------------------------------------------------|
G|------13p12h13p12h13p12h13p12-13-------------------------------------------|
D|---------------------------------------------------------------------------|
A|---------------------------------------------------------------------------|
E|---------------------------------------------------------------------------|

e|---------------------------------------------------------------------------|
B|-------1p0h1p0h1p0h1p0h-1--------------------REPEAT-----------------------
-|
G|---------------------------------------------------------------------------|
D|---------------------------------------------------------------------------|
A|---------------------------------------------------------------------------|
E|---------------------------------------------------------------------------|

Chorus
Verse
Bridge
e|---------------------------------------------------------------------------|
B|---------------------------------------------------------------------------|
G|--------6-----5-----6-----5-----6-----5-----------------------------------|
D|--------6-----5-----6-----5-----6-----5-----6------------------------------|
A|--------4-----3-----4-----3-----4-----3-----6------------------------------|
E|--------------------------------------------4------------------------------|





Solo:
e|---------------------------------------------------------------------------|
B|----------------------------16---16---14---------14---13---14---13---------|
G|--------13----13----13------------------------------------------------13---|
D|---------------------------------------------------------------------------|
A|---------------------------------------------------------------------------|
E|---------------------------------------------------------------------------|

e|---------------------------------------------------------------------------|
B|----------------------------16---16---14---------14---13---14---13---------|
G|--------13----13----13------------------------------------------------13---|
D|---------------------------------------------------------------------------|
A|---------------------------------------------------------------------------|
E|---------------------------------------------------------------------------|


e|---------------------------------------------------------------------------|
B|---------------13------------13-----------13-------------------------------|
G|---12----13h15-----13-13h15-----13-13h15------13---------------------------|
D|---------------------------------------------------------------------------|
A|---------------------------------------------------------------------------|
E|---------------------------------------------------------------------------|


e|---------------------------------------------------------------------------|
B|---------------13------------13-----------13------------13-----------16----|
G|---------13h15-----13-13h15-----13-13h15------13-13h15--------13-----------|
D|---------------------------------------------------------------------------|
A|---------------------------------------------------------------------------|
E|---------------------------------------------------------------------------|


e|---------------------------------------------------------------------------|
B|--------14------13---------------------------------------------------------|
G|-----------------------13--------------------------------------------------|
D|---------------------------------------------------------------------------|
A|---------------------------------------------------------------------------|
E|---------------------------------------------------------------------------|



Chorus



| /  slide up
| \  slide down
| h  hammer-on
| p  pull-off
| ~  vibrato
| +  harmonic
| x  Mute note
Related for The Narwhals - Paisley Skies tab