Song name
# A B C D E F G H I J K L M N O P Q R S T U V W X Y Z

Misc Unsigned Bands - Sameinsanjuan - You Say Murderous Zombies I Say Potatoe tab

http://www.purevolume.com/sameinsanjuan
listen to the song for how many times to
repeat ALL PARTS IN THE TAB!!!!!!....the intro is confusing but listen to the song!
thank you....if you do not have a copy of this song email me-charleyb@att.net
KEY:
*= p.m
!= let ring


e----------------------------------------------------------------|
b----------------------------------------------------------------|
g---------5-----------------5---7----------5----7----------------|
d-----3-----3-----------3----3--------3-----3-----7----3--2------|
a----7-7------7--------7-7----7------7--7----7-------------------|
d--0------------0----0-------------0-----------------------------|

e----------------------------|
b----------------------------|
g--------9-------10--9-------|
d--00000-9--0000-10--9-------|
a--00000-7--0000-8---7-------|
d--00000----0000-------------|
   *****    ****

for the next palm muting part all he does is palm mutes the d,a,d strings
listen to the song for the tempo...

e--1---1111-------|
b--3---3333-------|
g--2---2222-------|
d-----------------|
a-----------------|
d-----------------|
   !                   (PART II)
e-------------------------------------0h2p0-----------------------------------------|
b-------------0---------------------------------------3p0------------3p0------------|
g-------------------------------0----------------0--------0-----0--------0----------|
d--------4------4-------------4---4-------------2--2--------2----2---------2--------|
a------5---5------5------0--5----------------0-3--------------3---------------------|
d---7-------------------------------------------------------------------------------|

e--5h7---3h5----2h3---2h3--0----------------------------------------------|
b-------------------------------------------------------------------------|
g-------------------------------------------------------------------------|
d-------------------------------44444444---44444444---22222222--44444444--|
a-------------------------------55555555---55555555---33333333--55555555--|
d-------------------------------77777777----------------------------------|
                                !! !!! !   !! !!! !   !! !!! !  !! !!! !

play part II(labeled at top of tab staff)with distortion and fade out! and your done!
Tap to rate this tab
# A B C D E F G H I J K L M N O P Q R S T U V W X Y Z