Song name
# A B C D E F G H I J K L M N O P Q R S T U V W X Y Z

Misc Unsigned Bands - When Reality Hits - Twisted tab

intro
-----------------------------------------------------|
-----------------------------------------------------|
-----------------------------------------------------|  (x3)
-----------------------------------------------------|
--------------7-7777-6-6666-11-11111111-11-11111111--|
0-0000-0-0000-0-0000-0-0000--0--0-0-0-0--0--0-0-0-0--|

-----------------------------------|
-----------------------------------|
-----------------------------------|       (x1)
-----------------------------------|
7-7777-6-6666-7-7777-7-7777~-------|
0-0000-0-0000-0-0000-0-0000~-------|

----------------------------------------|
----------------------------------------|
9-9999-8-8888-13-13131313-13-13131313---|   (x3)
x-xxxx-x-xxxx--x--x-x-x-x--x--x-x-x-x---|
7-7777-6-6666-11-11111111-11-11111111---|
0-0000-0-0000--0--0-0-0-0--0--0-0-0-0---|

-----------------------------------------------------------------------------|
-----------------------------------------------------------------------------|
9-9999-8-8888-9-9999-9-9999~-------------------------------------------------|   (x1)
x-xxxx-x-xxxx-x-xxxx-x-xxxx--------------------------------------------------|
7-7777-6-6666-7-7777-7-7777~-------------------------------------------------|
0-0000-0-0000-0-0000-0-0000--------------------------------------------------|
chorus                          <--------------------------------------------|(distortion pedal turns on)
-----------------------------------------------------------------------------|
-------------------------------------------------------9-9999----------------|
------4-4444-8-8888-9-9999-8-8888-4-4444-8-8888-9-9999-9-9999-4-4444-8-8888--|
------x-xxxx-x-xxxx-x-xxxx-x-xxxx-x-xxxx-x-xxxx-x-xxxx-x-xxxx-x-xxxx-x-xxxx--|
------2-2222-6-6666-7-7777-6-6666-2-2222-6-6666-7-7777-7-7777-2-2222-6-6666--|
19////-----------------------------------------------------------------------|

------------------------------------------|
------------------------------------------|
9-9999-8-8888-4-4444-8-8888-4-4444-4-4444-|
x-xxxx-x-xxxx-x-xxxx-x-xxxx-x-xxxx-x-xxxx-|
7-7777-6-6666-2-2222-6-6666-2-2222-2-2222-|
------------------------------------------|
verse
----------------------------------------------------------------------|
----------------------------------------------------------------------|
----------------------------------------------------------------------|
-------------------------------9988-----------------------------------|
--4444888899998888-4444888899999999-4444888899998888-4444888844442244-|
--2222666677776666-2222666677777777-2222666677776666-2222666622220022-|
pm................ ................ ................ ................
(play 2x w/ pm, then 2x not pm)
Tap to rate this tab
 
# A B C D E F G H I J K L M N O P Q R S T U V W X Y Z