Song name
# A B C D E F G H I J K L M N O P Q R S T U V W X Y Z

Misc Unsigned Bands - Everto - Holding Hands tab

Drop D
/-slide up
\-slide down
~-wiggle string
h-hammer on
p-pull off
x-mute
pm-palm mute

Intro:
-----|--------------------------------------------------------------------|
-----|--------------------------------------------------------------------|
-----|--------------------------------------------------------------------|
-----|--------------------------------------------------------------------|
-----|--------------------------------------------------------------------|
12\0-|------0-0-h8-h7--0-0-h3/5--0-0-h8-h7-3/5--(x 2)---------------------|

Verse 1:
--------------------------------------------------------------------------|
--------------------------------------------------------------------------|
--------------------------------------------------------------------------|
--99999999----------------------77777777----------------------------------|
--77777777--99999999--77777777--55555555---(x 2)--------------------------|
------------77777777--55555555--------------------------------------------|

Chorus:
--------------------------------------------------------------------------|
--------------------------------------------------------------------------|
--------------------------------------------------------------------------|
--99999999--77777777--55555555--77777777--33333333------------------------|
--xxxxxxxx--xxxxxxxx--xxxxxxxx--xxxxxxxx--xxxxxxxx------------------------|
--77777777--55555555--33333333--55555555--11111111---(x 3)----------------|

Verse 2:
--------------------------------------------------------------------------|
--------------------------------------------------------------------------|
------------99999999------------------------------------------------------|
--99999999--77777777------------------------------------------------------|
--77777777----------99999999--77777777------------------------------------|
--------------------77777777--55555555---(x 2)----------------------------|

Solo:
-12------------------------------------------------------------------------|
----15-12-15-12----12------------------------------------------------------|
----------------14----14-12-14-12----12------------------------------------|
----------------------------------14----14-12-14-12----12------------------|
----------------------------------------------------14----14-12-14-12-10---|
------------------------------------------------------------------------12-|


------------------------------------------------------------------------12-|
----------------------------------------------------14----14-12-14-12-10---|
----------------------------------14----14-12-14-12----12------------------|
----------------14----14-12-14-12----12------------------------------------|
----15-12-15-12----12------------------------------------------------------|
-12------------------------------------------------------------------------|

Chorus:
--------------------------------------------------------------------------|
--------------------------------------------------------------------------|
--------------------------------------------------------------------------|
--99999999--77777777--55555555--77777777--33333333------------------------|
--xxxxxxxx--xxxxxxxx--xxxxxxxx--xxxxxxxx--xxxxxxxx------------------------|
--77777777--55555555--33333333--55555555--11111111--(x 2)-----------------|

Outro:
--------------------------------------------------------------------------|
--------------------------------------------------------------------------|
--------------------------------------------------------------------------|
--------------------------------------------------------------------------|
--------------------------------------------------------------------------|
9~----7~----5~----3~----1~----0-------------------------------------------|
Tap to rate this tab
# A B C D E F G H I J K L M N O P Q R S T U V W X Y Z