Song name
# A B C D E F G H I J K L M N O P Q R S T U V W X Y Z

Misc Unsigned Bands - Loud And Obnoxious - Fuck The Others tab

Guitar Intro(Clean with a chorus effect) Use Whammy Bar throughout
|----------------------------------------------------------------x5-| 
|----------<7>------------------------------------------------------|
|------------------<7>----------------------------------------------|
|-------------------------------------------------------------------|
|-------------------------------------------------------------------|
|-------------------------------------------------------------------|

Chorus(Distortion)
|------------------------------x3-|---------------------------------| 
|---------------------------------|---------------------------------|
|o-------------------------------o|---------------------------------|
|o-------------------------------o|---------------------------------|
|---------------5-3-------1-3-----|-------5-3-----------------------|
|--12/0-----0-0-5-3-0-000-1-3-----|---0-0-5-3-0-000-12/0------------|
(repeat the first part 3 times than second part once... and do the
whle thing twice over)

Versse(Clean with Chorus effect)
|---------------------------------------------------------------x4---|  
|--------------------------------------------------------------------|  
|--------------------------------------------------------------------|  
|--0-0-0-0-0-0-0-3-3-3-3-3-3-2-2-2-2-2-2-1-1-1-----------------------|  
|--------------------------------------------------------------------|  
|--------------------------------------------------------------------|  

|--------|(third time only)
|--------|
|--------|
|----<7>-|
|--------|
|-0p.m.--|
(listen to the cd for the rythm)

Outro(distortion)
|----------------------------------------|
|----------------------------------------|
|---------------5--------------5---------|
|---------------*--------------*---------|
|---------------3--------------3---------|
|---0-0--0----------0-0--0---------------|
(repeat this for awhile than...)

|----------------------------------------------------x3-| 
|-------------------------------------------------------| 
|-------------------------------------------------------| 
|-------------------------------------------------------| 
|-------5-3-------1-3-------5-3-------1-3---------------| 
|-0-0-0-5-3-0-0-0-1-3-0-0-0-5-3-0-0-0-1-3---------------| 
  . . .     . . .     . . .     . . .                          

|--------------------------|
|--------------------------|
|--------------------------|
|--------------------------|
|-------5-3-0-0-1-0-0-1----|
|-0-0-0-5-3-0-0-1-0-0-1----|
  . . .     . .   . .
repeat this till the end of the song and thats it...
not a hard song at all but it was the first song L.A.O. ever wrote so
enjoy and look out for there cd coming soon...I hope
Tap to rate this tab
# A B C D E F G H I J K L M N O P Q R S T U V W X Y Z