Song name
# A B C D E F G H I J K L M N O P Q R S T U V W X Y Z

Misc Unsigned Bands - Cursed - Cursed tab

Tuning-CGCFAD

|---------------------------------|
|---------------------------------|
|---------------------------------|
|-5-5-5-5-3-3-3-3-4-4-4-4-2-2-2-2-|
|-0-0-0-0-0-0-0-0-0-0-0-0-0-0-0-0-|
|---------------------------------|(x1)


|-----------------------------------------|
|-----------------------------------------|
|-----------------------------------------|
|-4-0-4-0-3-0-4-0-3-0-2-0-2-0-2-0-1-0-1-0-|
|-----------------------------------------|
|-----------------------------------------|(x1)


|-----------------|
|-----------------|
|-----------------|
|-3-7-5-7-5-7-8-7-|
|-3-7-5-7-5-7-8-7-|
|-3-7-5-7-5-7-8-7-|(x4)


|-----------------|
|-----------------|
|-----------------|
|-3-7-5-7-5-7-8-7-|
|-3-7-5-7-5-7-8-7-|
|-3-7-5-7-5-7-8-7-|(x4)
  * * * * * * * *

|-----------------|
|-----------------|
|-----------------|
|-----------------|
|-3-5-7-5-3-5-7-5-|
|-3-5-7-5-3-5-7-5-|(x1)


|-----------------|
|-----------------|
|-----------------|
|-3-7-5-7-5-7-8-7-|
|-3-7-5-7-5-7-8-7-|
|-3-7-5-7-5-7-8-7-|(x4)


|-----------------|
|-----------------|
|-----------------|
|-3-7-5-7-5-7-8-7-|
|-3-7-5-7-5-7-8-7-|
|-3-7-5-7-5-7-8-7-|(x4)
  * * * * * * * *


|-8(10)-12-15-17-15-13-12-15-13-11-----------------------------------------|
|----------------------------------12-12-13-------12-----------------------|
|-------------------------------------------12-13----12--------------------|
|-------------------------------------------------------12-12-12------18tp-|
|----------------------------------------------------------------17tp------|
|--------------------------------------------------------------------------|


|--------------|
|--------------|
|--------------|
|--------------|
|-13tp-14tp----|
|-----------0w-|(x1)


|-----------------|
|-----------------|
|-----------------|
|-3-7-5-7-5-7-8-7-|
|-3-7-5-7-5-7-8-7-|
|-3-7-5-7-5-7-8-7-|(x4)


|-----------------|
|-----------------|
|-----------------|
|-3-7-5-7-5-7-8-7-|
|-3-7-5-7-5-7-8-7-|
|-3-7-5-7-5-7-8-7-|(x4)
  * * * * * * * *

Key:
*=palm mute
(n)=what # to bend to
tp=tremolo picking
(xn)=how many times to play that part
w=whammy/tremolo bar
Tap to rate this tab
 
# A B C D E F G H I J K L M N O P Q R S T U V W X Y Z