Song name
# A B C D E F G H I J K L M N O P Q R S T U V W X Y Z

Misc Unsigned Bands - Paranoid - Give Me An Answer tab

Hay, whats ^ i am in this band(lead guitarist and vocals) so i know its right 100%,
but i didnt have time to do the whole thing just the intro and chorus  , sorry

x=mute strings

E----------------------------------------------------|
B----------------------------------------------------|
G----------------------------------------------------|
D----------------------------------------------------|
A-7-xx-7-xx-7--5-xx-5-xx-5--7-xx-7-xx-7--3-xx-3-xx-3-|
E-5-xx-5-xx-5--3-xx-3-xx-3--5-xx-5-xx-5--1-xx-1-xx-1-|
You do this whole thing twice

E------------------------------------------|
B------------------------------------------|
G------------------------------------------|
D------------------------------------------|
A-12-12-12-12-12-12-12-12--9-9-9-9-9-9-9-9-|
E-10-10-10-10-10-10-10-10--7-7-7-7-7-7-7-7-|
Tap to rate this tab
# A B C D E F G H I J K L M N O P Q R S T U V W X Y Z