Guitaretab - guitar tabs
Song name
# A B C D E F G H I J K L M N O P Q R S T U V W X Y Z

Misc Unsigned Bands - Ala Carte Xyz - Dedicated To Dawn tab

=-=-=-=-=-=-=-=-=-=-=-=-=-=-=-=
Title: Dedicated To Dawn
Artist/Band: A'La Carte XYZ
Album: February 14th
Release Date: April '05
Track No. 1 (3:13) 
=-=-=-=-=-=-=-=-=-=-=-=-=-=-=-=

Tabulator: Mark Crister A. Aquino
Lyceum Northwestern University, Philippines
B.S  COE
dagame_pn2@yahoo.com------->Comments? Mail Here..
09226537118 - Sun Cellular

Ey..this is my first tab done here..great song by a great band..this goes out to ralph
malate,karl omega,philip gonzales,timothy atupan,maan "besty" fernandez,dawn mendiola
and her..
I love her so much!
\m/ This site rocks!This album was released on our prom night and the band played i
our prom!They rock!
\m/..Look for more updates!..


Tuning: Standard 

Intro: (Guitar 1)
e------------------------------------------------------------------------
b-----7--5--4--2--4--4--4/5--7--5--0-------------------------------------
g------------------------------------------------------------------------
d------------------------------------------------------------------------
a------------------------------------------------------------------------
e------------------------------------------------------------------------

Guitar 2 (Plucking Riff 1---->Verse) (*Strum Normal Chords at Chorus)
       C                        G                    Am                       F
e----------------------|--------------------|-----------------------|---------------------|
b-------1--------1-----|-----3--------3-----|-------1-----------1---|-----1----------1----|
g---------0--------0---|-------0--------0---|---------2-----------2-|-------0----------0--|
d-----2--------2-------|--------------------|-----2-----------2-----|---3----------3------|
a---3--------3---------|---2--------2-------|---0-----------0-------|-3----------3--------|
e----------------------|-3--------3---------|-----------------------|---------------------|

*Guitar 1 **Always Use Power Chords** 
Verse 1:
C                     G         Am       
Everytime I close my eyes and think of you
F                              C
A thousand wishes run into my mind
              G                Am
I wish that together we would smile
         F
And be happy forever
   C         G                    Am
Everytime I talk and everytime i walk
            F
I wish hat you were beside me
 C                 G          Am
There has been no plan in my life 
  F
Without you in it


[ Tab from: http://www.guitaretab.com/m/misc-unsigned-bands/67809.html ]
Chorus 1:
  C   G        Am       F  
This song dedicated to Dawn
   C             G  Am       F
If only you and me together finally 
C              G      Am     F
I would never let you go


Verse 2:
C                   G
I wish that you and me
Am                    F
Holding hands until eternity
   C                  G
If we would fall out from the sky
      Am               F
Just hold my hands and we will fly
C                  G
When we reach the ground
      Am             F
Where you and I are safe and sound
C              G           Am             F
You know where I could be found


Chorus 2:
  C   G     Am          F
This song dedicated to Dawn
   C              G             Am
If only you were here inside my arms
         F
I would never let you go


Bridge: 
   C                    G  
I wish that we're in a picture
Am       F
You and me
   C                    G      
I wish that we were sitting on a beach
Am                        F                C    G-Am-F (**Guitar 1 Plucks Intro During C)
Watching the sunset while I stare in your eyes



**Ad-Lib (Guitar 1)(Guitar 2------->Play Chorus on Power Chords During Ad-Lib)
e--10-12-10-10/15-13-12----------------------------------------------------12-13-15---------------|
b-----------------------15-15/17-17-17/19-19-17-13-13h14----------12-13-15------------------------|
g--------------------------------------------------------13/15-13---------------------------------|
d-------------------------------------------------------------------------------------------------|
a-------------------------------------------------------------------------------------------------|
e-------------------------------------------------------------------------------------------------|

e--15-13-12-10-12-10-8-10-8-------------------5/15-15-17-19-----5/9-11-13------9h11-9-9-11-9--7---|
b---------------------------10-10/12-10-8-7-5---------------16------------9-11--------------7-7---|
g-------------------------------------------------------------------------------------------------|
d-------------------------------------------------------------------------------------------------|
a-------------------------------------------------------------------------------------------------|
e-------------------------------------------------------------------------------------------------|



Repeat Chorus 2

**Guitar 1 Play Chorus Chords One Fret Higher---->On Chorus 2
*Guitar 2 Pluck Intro---------->On Chorus 2

End the song using Chorus Pattern
===
End
===

##########################
#          NOTE:         #         
#       NO COPYING       #
#           .3.          #
##########################
Related for Ala Carte Xyz - Dedicated To Dawn tab