Song name
# A B C D E F G H I J K L M N O P Q R S T U V W X Y Z

Misc Unsigned Bands - Writ In Stone - You Are tab

Artist: Writ In Stone
Song: You Are
Tabbed By: Bro19


PM = Palm Mute
h = Hammer On
p = Pull Off
XhXhX = Only play first note, hammer second and third notes
/ = Slide

  PM - - - - - ->   PM - - - - - ->   PM - - - - - ->   PM - - - - - ->
|-----------------|-----------------|-----------------|-----------------|
|-----------------|-----------------|-----------------|-----------------|
|-7h8h9-9-7h8h9-9-|-5h6h7-7-5h6h7-7-|-7h8h9-9-7h8h9-9-|-5h6h7-7-5h6h7-7-|
|-7h8h9-9-7h8h9-9-|-5h6h7-7-5h6h7-7-|-7h8h9-9-7h8h9-9-|-5h6h7-7-5h6h7-7-|
|-7h8h9-9-7h8h9-9-|-5h6h7-7-5h6h7-7-|-7h8h9-9-7h8h9-9-|-5h6h7-7-5h6h7-7-|
|-----------------|-----------------|-----------------|-----------------|

|---------------------------|---------------------------|
|---------------------------|---------------------------|
|-------------------------7-|-------------------------5-|
|-------7--------7--------7-|-------5--------5--------5-|
|-7h8h9----7h8h9----7h8h9---|-5h6h7----5h6h7----5h6h7---|
|---------------------------|---------------------------|

|---------------------------|---------------------------|----------|
|---------------------------|---------------------------|----------|
|-------------------------7-|-------------------------5-|----------|
|-------7--------7--------7-|-------5--------5--------5-|----------|
|-7h8h9----7h8h9----7h8h9---|-5h6h7----5h6h7----5h6h7---|----------|
|---------------------------|---------------------------|-8p5/7-10-|

|---------------------------|---------------------------|----------|
|---------------------------|---------------------------|----------|
|-------------------------7-|-------------------------5-|----------|
|-------7--------7--------7-|-------5--------5--------5-|----------|
|-7h8h9----7h8h9----7h8h9---|-5h6h7----5h6h7----5h6h7---|----------|
|---------------------------|---------------------------|-8p5/7-10-|

 PM - - - - - - - - - - - - - - ->
|------------------------------------|
|------------------------------------|
|-9-8-7-9--7-6-5-7--5-4-3-5--4-3-2-4-|
|-9-8-7-9--7-6-5-7--5-4-3-5--4-3-2-4-|
|-9-8-7-9--7-6-5-7--5-4-3-5--4-3-2-4-|
|------------------------------------|

|------------------|------------------|
|------------------|------------------|
|------------------|------------------|
|-------7--------7-|-------5--------5-|
|-7h8h9----7h8h9---|-5h6h7----5h6h7---|
|------------------|------------------|

|------------------|--------------------------|----------|
|------------------|--------------------------|----------|
|------------------|------------------------5-|----------|
|-------7--------7-|-------5--------5-------5-|----------|
|-7h8h9----7h8h9---|-5h6h7----5h6h7---5h6h7---|----------|
|------------------|--------------------------|-8p5/7-10-|

 PM - - - - - - - - - - - - - - ->
|------------------------------------|
|------------------------------------|
|-9-8-7-9--7-6-5-7--5-4-3-5--4-3-2-4-|
|-9-8-7-9--7-6-5-7--5-4-3-5--4-3-2-4-|
|-9-8-7-9--7-6-5-7--5-4-3-5--4-3-2-4-|
|------------------------------------|
Tap to rate this tab
# A B C D E F G H I J K L M N O P Q R S T U V W X Y Z