Song name
# A B C D E F G H I J K L M N O P Q R S T U V W X Y Z

Misc Unsigned Bands - Negative 33 - Bash tab

     INTRO
|-0---3---2-|
|-0---0---2-|
|-0---0---2-|
|-2---0---2-|
|-2---0---0-|
|-0---0---0-|

     VERSE
|-------------------|
|-------------------|
|-------------------|
|-------------------|
|-55555555-77777777-|
|-33333333-55555555-|

     CHORUS
|-00-3333333-222--0-0-0-0-0-0-0-|
|-00-0000000-222--0-0-0-0-0-0-0-|
|-00-0000000-222--0-0-0-0-0-0-0-|
|-22-0000000-222--2-2-2-2-2-2-2-|
|-22-0000000-000--2-2-2-2-2-2-2-|
|-00-0000000-000--0-0-0-0-0-0-0-|

     SOLO
|-5-3-0-5---------|
|---------5-3-0-5-|
|-----------------|
|-----------------|
|-----------------|
|-----------------|

     ORDER
intro x4
verse x2
chorus x2
verse x4
chorus x4
solo x4
chorus x8
Tap to rate this tab
 
# A B C D E F G H I J K L M N O P Q R S T U V W X Y Z