Guitaretab - guitar tabs
Song name
# A B C D E F G H I J K L M N O P Q R S T U V W X Y Z

Misc Unsigned Bands - Half Awake - Honesty Is Overrated tab

HONESTY IS OVERRATED

Riff A
|-------------------------------------|
|-------------------------------------|
|-------------------------------------|
|-2----------2-----------2----------2-|
|-2----------2-----------2----------2-|
|-0----------0-----------0----------0-|

Riff B
Guitar One
|---------------------|
|---------------------|
|---------------------| x 4
|-2-2--3--5--7---2~|
|-2---2---3---5--72~|
|-0-----------------0~|
Guitar Two
|---------------------|
|---------------------|
|-4-4---5---7---9---4~| x 2 (final two times)
|-2---2---3---5---7-2~|
|---------------------|
|---------------------|

Riff C
Guitar One
|-----------------------------|
|-----------------------------|
|-----------------------------| x 4
|-2-2-2-4-3---3-3-6-55-5-8-7-|
|-2-2-2-4-3---3-3-6-55-5-8-7-|
|-0-0-0-4-3---3-3-6-55-5-8-7-|
Guitar Two
|----------------------------------|
|----------------------------------|
|-5-5-5-8-7---7-7-10-9---9-9-12-11-| x 4
|-5-5-5-8-7---7-7-10-9---9-9-12-11-|
|-3-3-3-6-5---5-5-8--7---7-7-10-9--|
|----------------------------------|

Riff D - both guitars
|-----------------------|      |---------------------------|
|-----------------------|      |---------------------------|
|-----------------------| x 4  |---------------------------|
|-2-2-2-2-2-4-3-6-5-8-7-|      |-8-7-6-5-4-3-8-7-6-5-4-3-2-|
|-2-2-2-2-2-4-3-6-5-8-7-|      |-8-7-6-5-4-3-8-7-6-5-4-3-0-|
|-0-0-0-0-0-4-3-6-5-8-7-|      |-8-7-6-5-4-3-8-7-6-5-4-3-0-|

Riff E
Guitar One
|-----------------|
|-----------------|
|-----------------| x 4
|-7-6-5-3-2-2-2-2-|
|-7-6-5-3-2-2-2-2-|
|-7-6-5-3-0-0-0-0-|
Guitar Two
|-----------------|
|-----------------|
|-5-4-3-3---------| x 4
|-5-4-3-3-2-2-2-2-|
|-5-4-3-3-2-2-2-2-|
|---------0-0-0-0-|
[ Tab from: http://www.guitaretab.com/m/misc-unsigned-bands/67889.html ]
Riff F - both guitars
|-------------------------------------------|
|-------------------------------------------|
|-------------------------------------------|
|-5-4-3-3-4-5----7-6-5-5-6-7----9-8-7-7-8-9-|
|-5-4-3-3-4-5----7-6-5-5-6-7----9-8-7-7-8-9-|
|-5-4-3-3-4-5---7-6-5-5-6-7---9-8-7-7-8-9-|

GUITAR TWO (behind solo)
|---------------|
|---------------|
|---------------| each 8 times
|-2---5---7---9-|
|-2---5---7---9-|
|-0---3---5---7-|

SOLO 1
|-------------------------------------------------------------------------------------------|
|-------------------------------------------------------------------------12-14/15-14-12-14-|
|------------------------------------------------------------15-12h13h14--------------------|
|---------------------------12h13p12-----12-14/15-14-12-14----------------------------------|
|-3/12-11-12-15-14-12-14--------------14----------------------------------------------------|
|-------------------------------------------------------------------------------------------|

SOLO 2
|-9b-7h9p7---7-------------------------------------------------------------|
|----------9---9b-7h9p7---7------------------------------------------------|
|-----------------------9---9b-9p8p7p0-5-0-7-0-----------------------------|
|----------------------------------------------5-0-7-0---------------------|
|------------------------------------------------------5-0-7-0-------------|
|--------------------------------------------------------------5-0-7-0-5-3-|

SOLO 3
|------------------------------------------15h16h17-17p15-15h17-17/19-17-19bb-|
|---------------------------------14h15h16------------------------------------|
|------------------------13h14h15---------------------------------------------|
|---------------12h13h14------------------------------------------------------|
|------11h12h13---------------------------------------------------------------|
|-9/12------------------------------------------------------------------------|

CORRECT ORDER
RIFF A
RIFF B
RIFF C
RIFF D
RIFF C
RIFF D
RIFF E
RIFF B
RIFF C
RIFF D
RIFF E
RIFF B
RIFF F
SOLO 1
RIFF F
SOLO 2
RIFF F
SOLO 3
RIFF E
RIFF B
RIFF D
Related for Half Awake - Honesty Is Overrated tab