Song name
# A B C D E F G H I J K L M N O P Q R S T U V W X Y Z

Misc Unsigned Bands - Writ In Stone - Untitled tab

Artist: Writ In Stone
Song: Untitled
Tabbed By: Bro19

PM = Palm Mute
~ = Vibrato

PM - - - - - - - - - - - - - - ->
|---------------------------------|
|---------------------------------|
|---------------------------------|
|-9-9-9-8-8-8-8-8-6-6-6-9-9-9-9-9-|
|-7-7-7-6-6-6-6-6-4-4-4-7-7-7-7-7-|
|---------------------------------|

PM - - - - - - - - - - - - - - ->
|---------------------------------|
|---------------------------------|
|---------------------------------|
|-9-9-9-8-8-8-8-8-6-6-6-9-9-9-9-9-|
|-7-7-7-6-6-6-6-6-4-4-4-7-7-7-7-7-|
|---------------------------------|

PM - - - - - - - - - ->
|-------------------------|
|-------------------------|
|-------------------------|
|-9-9-9-8-8-8-8-8-6-6-6-9-|
|-7-7-7-6-6-6-6-6-4-4-4-7-|
|-------------------------|

|---------------|-----------------|
|---------------|-----------------|
|-9-------------|-9---------------|
|-7-9-8----8-9~-|-7-9-8------8-9~-|
|---7-6----6-7~-|---7-6------6-7~-|
|-------7~------|-------7-6~------|

|---------------------------------|---------------------------------|
|---------------------------------|---------------------------------|
|-7-7-7-6-6-6-6-6-4-4-4-7-7-7-7-7-|-7-7-7-6-6-6-6-6-4-4-4-7-7-7-7-7-|
|-0-----0---------0-----0---------|-0-----0---------0-----0---------|
|---------------------------------|---------------------------------|
|---------------------------------|---------------------------------|

|---------------------------------|---------------------------------|
|---------------------------------|---------------------------------|
|-7-7-7-6-6-6-6-6-4-4-4-7-7-7-7-7-|-7-7-7-6-6-6-6-6-4-4-4-7-7-7-7-7-|
|-0-----0---------0-----0---------|-0-----0---------0-----0---------|
|---------------------------------|---------------------------------|
|---------------------------------|---------------------------------|

PM - - - - - - - - - ->
|-------------------------|
|-------------------------|
|-------------------------|
|-9-9-9-8-8-8-8-8-6-6-6-9-|
|-7-7-7-6-6-6-6-6-4-4-4-7-|
|-------------------------|

|---------------|-----------------|
|---------------|-----------------|
|-9-------------|-9---------------|
|-7-9-8----8-9~-|-7-9-8------8-9~-|
|---7-6----6-7~-|---7-6------6-7~-|
|-------7~------|-------7-6~------|

PM - - - - - - - - - - - - - - ->
|---------------------------------|
|---------------------------------|
|---------------------------------|
|-9-9-9-8-8-8-8-8-6-6-6-9-9-9-9-9-|
|-7-7-7-6-6-6-6-6-4-4-4-7-7-7-7-7-|
|---------------------------------|

PM - - - - - - - - - - - - - - ->
|---------------------------------|
|---------------------------------|
|---------------------------------|
|-9-9-9-8-8-8-8-8-6-6-6-9-9-9-9-9-|
|-7-7-7-6-6-6-6-6-4-4-4-7-7-7-7-7-|
|---------------------------------|

PM - - - - - - - - - ->
|--------------------------|
|--------------------------|
|--------------------------|
|-9-9-9-8-8-8-8-8-6-6-6-9~-|
|-7-7-7-6-6-6-6-6-4-4-4-7~-|
|--------------------------|
Tap to rate this tab
# A B C D E F G H I J K L M N O P Q R S T U V W X Y Z