Song name
# A B C D E F G H I J K L M N O P Q R S T U V W X Y Z

Misc Unsigned Bands - Arsen - Hypnotism tab

ME AND MY BAND MADE THIS SONG WE ARE NOT SOME BIG NAME BAND BUT WE WANTED SOME 
PEOPLE TO HEAR OUR MUSIC. SO PLEASE TRY OUT OUR STUFF OUR BAND NAME IS ARSEN.
I WILL HAVE SOME MORE POSTED UP SOON.

 |-5-7-----5-7-----4-6-----4-6----| <-fig. #1
 |-----6-5-----6-5-----5-4-----5-4|
 |--------------------------------|X2(the second time you play continuosly 
 |--------------------------------|  slow down and after the last pick of the
 |--------------------------------|  string stop playing for about one
 |--------------------------------|  second.)

 |-------------------------------| <-fig. #2
 |-------------------------------| (fig.#2 and fig.#3 are played very
 |-------------------------------|  quickly.)
 |---------------------7-------7-|
 |-----------------7-------7-----|
 |-5-5-5-5-5-5-5-5-5-5-5-5-5-5-5-|

 |-------------------------------|<-fig. #3 |-----------------|<-fig. #4
 |-------------------------------|          |-----------------|
 |-------------------------------|          |-----------------|
 |---------------------8-------8-|          |-7-8-6-7-7-7-7-7-|
 |-----------------8-------8-----|          |-7-8-6-7-7-7-7-7-|
 |-6-6-6-6-6-6-6-6-6-6-6-6-6-6-6-|          |-5-6-4-5-5-5-5-5-|

 PLAY ORDER: FIG.#1 (X2) FIG.#2 FIG.#3 FIG.#2 FIG.#3 FIG.#4
(CONTINUE PLAYING FIG.2 FIG.3 FIG.2 FIG.3 FIG.4 PLAY IT 6 TIMES AND THAT IS
THE SONG.:) 
Tap to rate this tab
# A B C D E F G H I J K L M N O P Q R S T U V W X Y Z