Song name
# A B C D E F G H I J K L M N O P Q R S T U V W X Y Z

Misc Unsigned Bands - Caje - Not Fair tab

Hello, this is our most requested song to be played at GIgs so here it is,

Verse,

e ---------------------------------|
b ---------------------------------|
g --55555/77/8-88-55555/77/8-88----| x8
d --55555/77/8-88-55555/77/8-88----|
a --33333/55/6-66-33333/55/6-66----|
e ---------------------------------|

Chorus,

e --------------------------------|
b --------------------------------|
g --10101010----------------------|
d --1010101010101010-1111111111---|  x4
a --8-8-8-8-10101010-1111111111---|
e ----------8-8-8-8--9-9-9-9-9----|

Guitar solo,

e ---------------------------------|
b ---------------------------------|
g -----------12-12-12-12-11-11-11--| x4
d -------9/1212-12-12-12-11-11-11--|
a ---9/12--------------------------|
e --0------------------------------|


Order,

Intro, ( drums only )
Verse 1,
Chorus,
Verse 2,
Chorus,
Solo,
Chorus,
Verse 1,
Chorus,
Tap to rate this tab
# A B C D E F G H I J K L M N O P Q R S T U V W X Y Z