Guitaretab - guitar tabs
Song name
# A B C D E F G H I J K L M N O P Q R S T U V W X Y Z

Misc Unsigned Bands - Last Stitch Failure - A Hole Mended tab

Artist: Last Stitch Failure
Song:   A Hole Mended
Tuning: EADGBe
Key:
/\ slide up or down
b  bend
~  let ring
v  vibrato

INTRO: riff 1
Guitar I
e|------------------------------------------------|
B|------------------------------------------------|
G|--7/9—-7—-9b~---9-7-5-7-5-2b~----2-3-0~---------|
D|--0-0--0—-0~----0-0-0-0-0-0~-----0-0-0~---------|
A|------------------------------------------------|
E|------------------------------------------------|

INTRO: riff 2 (chords)
Guitar I (listen to CD to figure out strumming pattern)
Let last chord ring and tap out 4 beats on the guitar body
e|---|----|---|----|
B|---|----|---|----|
G|-9-|-xx-|-7-|-xx-|
D|-7-|-xx-|-5-|-xx-|
A|-x-|-xx-|-x-|-xx-|
E|-5-|-xx-|-3-|-xx-|

INTRO: riff 2 (chords)
(listen to CD to figure out strumming pattern)
Let last chord ring and tap out 4 beats on the guitar body
Guitar II
e|-0-|-3-|
B|-0-|-3-|
G|-2-|-0-|
D|-2-|-0-|
A|-0-|-x-|
E|---|-3-|

VERSE: riff 1
(tap 4 beats on guitar body after last note)
Guitar I
e|------------------------------------------------------------|
B|------------------------------------------------------------|
G|------------------------------------------------------------|
D|--------9---9------12---------------7-----5---------7-------|
A|-7-----—--7---7-------10------5-------5------5--------5-----|
E|-5--5-5---------5/8-------8-0-3-3-3-----3--------3-3-----3-0|






e|------------------------------------------------|
B|------------------------------------------------|
G|------------------------------------------------|
D|--------9---9-------12--------------7-----5~----|
A|-7--------7---7--------10-----5-------5---------|
E|-5--5-5---------5/8-------8-0-3-3-3-----3-------|

VERSE: riff 1 (chords)
Guitar II
e|-0-|-0-|
B|-0-|-0-|
G|-2-|-4-|
D|-2-|-2-|
A|-0-|-0-|
E|---|---|

VERSE: riff 2 (part 2 x2)
(listen to CD for strumming pattern)
(do the last slide in octave notes for the last measure)
Guitar I
e|-----|-----------------------------------------------------------|
B|-----|-----------------------------------------------------------|
G|-x-x-|-9--9-9-9--9-9--9-9---------0-7--7-7-7--7-7--7-7---------0-|
D|-x-x-|-9--9-9-9--9-9--9-9-9/12-11-0-7--7-7-7--7-7--7-7-7/12-11-0-|
A|-x-x-|-7--7-7-7--7-7--7-7-0--0—0--0-5--5-5-5--5-5--5-5-0--0--0-0-|
E|-----|-----------------------------------------------------------|

VERSE: riff 2 (x2)
Guitar II
e|-----|-0--0-0-0--0-0--0-0----------0--0-0-0--0-0--0-0-----------|
B|-----|-0--0-0-0--0-0--0-0----------0--0-0-0--0-0--0-0-----------|
G|-x-x-|-9--9-9-9--9-9--9-9-6h7-6----7--7-7-7--7-7--7-7--6h7-6----|
D|-x-x-|-9--9-9-9--9-9--9-9----------7--7-7-7--7-7--7-7-----------|
A|-x-x-|-7--7-7-7--7-7--7-7-----—----5--5-5-5--5-5--5-5-----------|
E|-----|----------------------------------------------------------|

VERSE: riff 3 (x2)
(listen to CD for strumming pattern)
(don’t slide the last octave note on last measure, instead strum the 755 chord, building it up)
Guitar I
e|-----|-----------------------------------------------------------|
B|-----|-----------------------------------------------------------|
G|-x-x-|-9--9-9-9--9-9--9-9-9/12-11-0-7--7-7-7--7-7--7-7-7-12-11-0-|
D|-x-x-|-9--9-9-9--9-9--9-9-x—----x-0-7--7-7-7--7-7--7-7-x/----x-0-|
A|-x-x-|-7--7-7-7--7-7--7-7-7/10—-9-0-5--5-5-5--5-5--5-5-5-10--9-0-|
E|-----|-----------------------------------------------------------|

VERSE: riff 3 (x2)
Guitar II
(same as Guitar I)



VERSE: riff 4 (chords)
(hit the E string open between chords)
Guitar 1
e|---|---|
B|---|---|
G|---|---|
D|-7-|-5-|
A|-7-|-5-|
E|-5-|-3-|

VERSE: riff 4
Guitar II
e|------------------------------------------------|
B|------------------------------------------------|
G|------------------------------------------------|
D|------------------------------------------------|
A|------------------------------------------------|
E|------------------------------------------------|

VERSE: riff 5
(very odd timing, listen to CD to get it)
Guitar I
e|------------------------------------------------------------|
B|------------------------------------------------------------|
G|------------------------------------------------------------|
D|-5/7-5------------------------------------------------------|
A|-0-0-0-7-7-7-5-5--7-7-7-5-5--7-7-7-5-5--7-7-7-5-5--7-7---7~-|
E|-------0-0-0-0-0--0-0-0-0-0--0-0-0-0-0--0-0-0-0-0--0-0---0--|

e|-------------------------------------------------|
B|-------------------------------------------------|
G|-------------------------------------------------|
D|-------------------------------------------------|
A|-7-7-5h7-7-7--7-5-5--5-5-5-5--5-5-5h7-7-7-5-5~---|
E|-0-0-0-0-0-0--0-0-7--7-7-7-7--7-7-0-0-0-0-0-7~---|
[ Tab from: http://www.guitaretab.com/m/misc-unsigned-bands/67983.html ]
VERSE: riff 5 (chords)
Guitar 2
e|------------------------------------------------|
B|------------------------------------------------|
G|------------------------------------------------|
D|------------------------------------------------|
A|------------------------------------------------|
E|------------------------------------------------|










CHORUS: riff 1 (chords)
(listen for the change in strumming pattern)
(let last chord ring and tap 4 beats on guitar body)
Guitar 1
e|---|---|
B|---|---|
G|---|---|
D|-9-|-7-|
A|-7-|-5-|
E|-5-|-3-|

CHORUS: riff 1 (chords)
Guitar II
e|------------------------------------------------|
B|------------------------------------------------|
G|------------------------------------------------|
D|------------------------------------------------|
A|------------------------------------------------|
E|------------------------------------------------|

BRIDGE: riff 1 (x2)
(tap on guitar body during let rings except for last one, listen to CD for timing)
Guitar I
e|------------------------------------------------|
B|------------------------------------------------|
G|-x-x-7/12-12--12-11~------x-x-7/11-11--11-9~----|
D|-x-x-x-----x---x--x-------x-x-x-----x---x-x-----|
A|-x-x-5/10-10—-10—-9~------x-x-5/9---9---9-7~----|
E|-0-0----------------------0-0-------------------|

BRIDGE: riff 1 (x2)
Guitar 2
e|------------------------------------------------|
B|------------------------------------------------|
G|------------------------------------------------|
D|------------------------------------------------|
A|------------------------------------------------|
E|------------------------------------------------|

VERSE: riff 1 (x4) 
(don’t do the last slide on the last measure)
Guitar I
e|---------------------------------------------------|
B|---------------------------------------------------|
G|-9--9-9-9--9-9--9-9-9/12-12-7--7-7-7--7-7--7-7-7/9-|
D|-9--9-9-9--9-9--9-9-9/12—12-7--7-7-7--7-7--7-7-7/9-|
A|-7--7-7-7--7-7--7-7-7/10—10-5--5-5-5--5-5--5-5-5/7-|
E|---------------------------------------------------|





VERSE: riff 1
Guitar II
e|------------------------------------------------|
B|------------------------------------------------|
G|------------------------------------------------|
D|------------------------------------------------|
A|------------------------------------------------|
E|------------------------------------------------|

VERSE/CHORUS: riff 2 (chords)
(listen for the change in strumming pattern)
(hit the E string open between chords when going from high to low and slide down when going vice versa)
Guitar 1
e|---|---|
B|---|---|
G|---|---|
D|-7-|-5-|
A|-7-|-5-|
E|-5-|-3-|

VERSE/CHORUS: riff 2 (chords)
Guitar 2
e|------------------------------------------------|
B|------------------------------------------------|
G|------------------------------------------------|
D|------------------------------------------------|
A|------------------------------------------------|
E|------------------------------------------------|

VERSE/CHORUS: riff 3 (chords)
(at the end of last measure, let ring and strum barely touching the strings a couple times to keep beat)
Guitar I
e|---|---|
B|---|---|
G|---|---|
D|-9-|-7-|
A|-7-|-5-|
E|-5-|-3-|

VERSE/CHORUS: riff 3 (chords)
Guitar II
e|------------------------------------------------|
B|------------------------------------------------|
G|------------------------------------------------|
D|------------------------------------------------|
A|------------------------------------------------|
E|------------------------------------------------|





OUTRO: riff 1
Guitar I
e|------------------------------------------------------------|
B|-5h7-7-7-7-5-5----------------------------------------------|
G|-0-0-0-0-0-0-0-7v-7---7-7-7-7--7-7-5h7-7-5-5-2--2-2-2v--2-2-|
D|---------------0—---0-0-0-0-0--0-0-0-0-0-0-0-0--0-0-0---0-0-|
A|------------------------------------------------------------|
E|------------------------------------------------------------|

e|----------------------------------------------------------|
B|----------------------------------------------------------|
G|-5h7-7-7-7-5-5--------------------------------------------|
D|-0-0-0-0-0-0-0-7v-7-7-7-7-7--7-7-5h7-7-5-5-2--2-2-2v--2-2-|
A|---------------0—-0-0-0-0-0--0-0-0-0-0-0-0-0--0-0-0---0-0-|
E|----------------------------------------------------------|

e|----------------------------------------------------------|
B|-5h7-7-7-7-5-5--------------------------------------------|
G|-0-0-0-0-0-0-0-7v-7-7-7-7-7--7-7-5h7-7-5-5-2--2-2-2v--2-2-|
D|---------------0—-0-0-0-0-0--0-0-0-0-0-0-0-0--0-0-0---0-0-|
A|----------------------------------------------------------|
E|----------------------------------------------------------|

e|----------------------------------------------------------|
B|----------------------------------------------------------|
G|-5h7-7-7-7-5-5--------------------------------------------|
D|-0-0-0-0-0-0-0-7v-7-7-7-7-7--7-7—-7/10-9-5-7~-------------|
A|---------------0—-0-0-0-0-0--0-0--0--0-0-0-0~-------------|
E|----------------------------------------------------------|

This tab is, for the most part, accurate.  I can promise this
because I wrote the song.  There are some parts that are different
on the new cd version (not yet out on 01.19.06) but I'm sure you can
figure them out. Enjoy!
Related for Last Stitch Failure - A Hole Mended tab
Advertisement will be closed in 10 seconds