Song name
# A B C D E F G H I J K L M N O P Q R S T U V W X Y Z

Misc Unsigned Bands - Half Awake - Regrets tab

Help us improve GuitareTab! Take a short survey!
REGRETS?
INTRO (both guitars)
|-------------------------------------------|
|-------------------------------------------|
|-6-6-6-6-6/8---8/6---6/4-4-4-4-4-4-6-6-4-5-|
|-7-7-7-7-7/9---9/7---7/5-5-5-5-5-5-7-7-5-4-|
|-7-7-7-7-7/9---9/7---7/5-5-5-5-5-5-7-7-5-4-|
|-5-5-5-5-5/7---7/5---5/3-3-3-3-3-3-5-5-3-2-|

GUITAR ONE (interlude)
|---------------------------------------------------------------------------------------------------9h11p9-------|
|----------------------------------------------------------------------------------------------9-11--------11/14-|
|-------7---7-9/10-9-7h9p7---------7---------------------7---7-9/10-9-7h9p7---------7---7-9/11-------------------|
|-7h8h9---9----------------9-7h8h9---9-7-----------7h8h9---9----------------9-7h8h9---9--------------------------|
|----------------------------------------9-7-5-7-5---------------------------------------------------------------|
|----------------------------------------------------------------------------------------------------------------|
GUITAR TWO - (both guitars for verses)
|----------------------------------------------------------------------------------------------------------------|
|----------------------------------------------------------------------------------------------------------------|
|-6--------------------------4---------------------6--------------------------8----------------------------------|
|-7--------------------------5---------------------7--------------------------9----------------------------------|
|-7--------------------------5---------------------7--------------------------9----------------------------------|
|-5--------------------------3---------------------5--------------------------7----------------------------------|
Interlude again and then repeat verse

PRE-CHORUS
|-------------------------------|
|-------------------------------|
|-6/4---4/6---6/4---4/6---8-8-8-|
|-7/5---5/7---7/5---5/7---9-9-9-|
|-7/5---5/7---7/5---5/7---9-9-9-|
|-5/3---3/5---5/3---3/5---7-7-7-|

CHORUS
|------------------------------------------------------------------------------|
|------------------------------------------------------------------------------|
|-8-8-6-6-4-4-6-6-9--9--9--13-13-11-11---8-8-6-6-4-4-4/11-11-11-11-13-13-14-14-|
|-9-9-7-7-5-5-7-7-10-10-10-14-14-12-12---9-9-7-7-5-5-5/12-12-12-12-14-14-15-15-|
|-9-9-7-7-5-5-7-7-10-10-10-14-14-12-12---9-9-7-7-5-5-5/12-12-12-12-14-14-15-15-|
|-7-7-5-5-3-3-5-5-8--8--8--12-12-10-10---7-7-5-5-3-3-3/10-10-10-10-12-12-13-13-|

|--------------------------------------------------------------------------------------------------|
|--------------------------------------------------------------------------------------------------|
|-8-8-6-6-4-4-4/8-8-6-6-4---4-4-3-3-3-3-3/4-4-4/6-6-6/8-8-8--11-11---6---4---6---8---6---4---6---8-|
|-9-9-7-7-5-5-5/9-9-7-7-5---5-5-4-4-4-4-4/5-5-5/7-7-7/9-9-9--12-12---7---5---7---9---7---5---7---9-|
|-9-9-7-7-5-5-5/9-9-7-7-5---5-5-4-4-4-4-4/5-5-5/7-7-7/9-9-9--12-12---7---5---7---9---7---5---7---9-|
|-7-7-5-5-3-3-3/7-7-5-5-3---3-3-2-2-2-2-2/3-3-3/5-5-5/7-7-7--10-10---5---3---5---7---5---3---5---7-|

POST CHORUS
|---------------------|
|---------------------|
|-8/6-6/7-7/6-6/4-4/3-|
|-9/7-7/5-5/7-7/5-5/4-|
|-9/7-7/5-5/7-7/5-5/4-|
|-7/5-5/3-3/5-5/3-3/2-|

BRIDGE - palm mute
|----------------------------------|
|----------------------------------|
|----------------------------------|
|-5-5-5-5-5-5---5-5-5---5-5-555555-|
|-5-5-5-5-5-5---5-5-5---5-5-555555-|
|-3-3-3-3-3-3---3-3-3---3-3-333333-|

SOLO (verse chords under)
|------------------------------------------------------------------------------------------------------------|
|------------------------------------------------------------------------------------------12----12-14/15-14-|
|-------7---7-9/11-9-7-11/13-11-9-13/15-14-12h14p12-------------12----12-14/15-14-12h13h14----14-------------|
|-7h8h9---9-----------------------------------------14-12h13h14----14----------------------------------------|
|------------------------------------------------------------------------------------------------------------|
|------------------------------------------------------------------------------------------------------------|

|----------12----12-14/15-14-12h14p12/-------------------------------------------------------|
|-12h13h14----14-----------------------------------------------------------------------------|
|-----------------------------------------------------------------------7h9-9/11-9-9p7p0-7v/-|
|----------------------------------------7h9-7h9-7h9-7h9-7h9-7h9v---7h9----------------------|
|--------------------------------------------------------------------------------------------|
|--------------------------------------------------------------------------------------------|

|------------------------------------------------------------------|
|------------------------------------------------------------------|
|-9p7p0-7v/---9p7p0-9p7p0-9p7p0-9p7p0-9p7p0-7v/3-5-3-3-3-5p3p0-3/0-|
|------------------------------------------------------------------|
|------------------------------------------------------------------|
|------------------------------------------------------------------|

OUTRO - same as post-chorus
Related for Half Awake - Regrets tab