Song name
# A B C D E F G H I J K L M N O P Q R S T U V W X Y Z

Misc Unsigned Bands - Half Awake - F2f tab

F.2.F
INTRO
guitar one
|---------------------------------------------------------|
|---------------------------------------------------------|
|---------------------------------------------------------| x 4
|-----3-5-3-----------3-5-3-----------3-5br-3-5/7-5-3-5-3-|
|-3-5-------5-3---3-5-------5-3---3-5---------------------|
|---------------------------------------------------------|

guitar two - (comes in after two of above)
|---9-11-9------11-----9-11-9------9-----9-11-9------11/12-11-9-11/12-11-|
|-9--------11-9------9--------11-9-----9--------11-9---------------------|
|------------------------------------------------------------------------| x 2
|------------------------------------------------------------------------|
|------------------------------------------------------------------------|
|------------------------------------------------------------------------|

VERSES                                                   1ST  2ND
|-------------------------------------------------------|---|------|
|-------------------------------------------------------|---|------|
|-------------------------------------------------------|---|-12b/-| x 2
|-----3-5-3-----------3-5-3-----------3-5br-3-5/7-5-3-5-|-3-|------|
|-3-5-------5-3---3-5-------5-3---3-5-------------------|---|------|
|-------------------------------------------------------|---|------|

CHORUS
|----------------------------------------------------11-9-12-9-11---9-7--------------------------|
|--------------------------------------------12-11-9-------------------------------------------7-|
|------------------9-11---9h11p9-11/12-11-9--------------------------------------------7---7-9---|
|-----7-9---7-9/11-------------------------------------------------------5-5h6h7-7h8h9---9-------|
|-7-9-----9--------------------------------------------------------------------------------------|
|------------------------------------------------------------------------------------------------|

|---------------|     |---------------|     |-----9/12-11-9---------------------------------------------------|
|---------------|     |---------------|     |---------------12-11-9-11---9h11p9-11/12-11-9--------------------|
|---------------| x 2 |-----7-9-7-----| x 2 |---7------------------------------------------11-9-7-5-----------|
|-----7-9-7-----|     |-7-9-------9-7-|     |-9-----------------------------------------------------5-5-3-----|
|-7-9-------9-7-|     |---------------|     |-------------------------------------------------------------5-3-|
|---------------|     |---------------|     |-----------------------------------------------------------------|

SOLO
|-9-11/12-11-9-11/12-11-| |-9-11/12-11-|     |-9----9---------------------------12-11-9-| |-12/11-9-|
|-----------------------| |------------|     |---11---11-9---------9h11p9-11/12---------| |---------|
|-----------------------| |------------| x 6 |-------------11-9-11----------------------| |---------| x 4
|-----------------------| |------------|     |------------------------------------------| |---------|
|-----------------------| |------------|     |------------------------------------------| |---------|
|-----------------------| |------------|     |------------------------------------------| |---------|

|-9-11/14-12-------------| |-15-14-12-|     |-15/14-12-|     |-12h14p12----12-----------------------------|
|------------14-12-14/15-| |----------|     |----------|     |----------14----14-12-9-11-9----------------|
|------------------------| |----------| x 4 |----------| x 6 |-----------------------------11-9-----------|
|------------------------| |----------|     |----------|     |----------------------------------11-9------|
|------------------------| |----------|     |----------|     |---------------------------------------11-9-|
|------------------------| |----------|     |----------|     |--------------------------------------------|

|-------------------------------|
|-------------------------------|
|-------------------------------|
|-----7h9p7---7-5/3-5/7-5-3-5-3-|
|-7h9-------9-------------------|
|-------------------------------|
Tap to rate this tab
# A B C D E F G H I J K L M N O P Q R S T U V W X Y Z