Song name
# A B C D E F G H I J K L M N O P Q R S T U V W X Y Z

Misc Unsigned Bands - Lost Lies - Heaven tab

Artist: Lost Lies
Album: Heaven 
Song: Heaven

Standard Tuning
Heavy Distortion

Intro
E|-------------------------------------------------|
B|-2---------4-----------7----------4----------2---|
G|-------------------------------------------------|
D|-------------------------------------------------|
A|-------------------------------------------------|
E|-------------------------------------------------|

Verse
E|------------------------------| repeat twice for 1 verse
B|------------------------------|
G|-------0----------------------|
D|---0--------------------------|
A|-----3------------------------|
E|-0----------------------------|

Chorus Palm Muted
E|--------------------------------------|
B|--------------------------------------|
G|-----444-333--------------------------|
D|-555-444-333-444----------------------|
A|-555-222-111-444----------------------|
E|-333---------222----------------------|

Solo
E|------------------0-1-3-3-7-6-----------------|
B|-1hbqb-------3553-------------6b--r7890987----|
G|-------1hbqb----------------------------------|
D|----------------------------------------------|
A|----------------------------------------------|
E|----------------------------------------------|
Tap to rate this tab
# A B C D E F G H I J K L M N O P Q R S T U V W X Y Z