Song name
# A B C D E F G H I J K L M N O P Q R S T U V W X Y Z

Misc Unsigned Bands - Seneca - And When Time Goes tab

D|---------|-------------------------------|------------------------------------------|
A|---------|-------------------------------|------------------------------------------|
F|---------|-------------------------------|------------------------------------------|
C|-0-0-000-|-0-0-5-3-000-7-5---5/7/3-3/5/2-|-0000-3-0000-3-00-3-0000-3-00-5-3-2-3-2-0-|
G|-0-0-000-|-0-0-----000-----7-------------|-0000-1-0000-1-00-1-0000-1-00-------------|
C|-0-0-000-|-0-0-----000-------------------|-0000---0000---00---0000---00-------------|
   . . ...   . .     ...  Repeat 8 Times     ....   ....   ..   ....   .. Repeat 4 Times
D|--------------------------------------|---|
A|--------------------------------------|---|
F|--------------------------------------|---|
C|-000-000-000-000-000-000-00-5-3-2-3-2-|-0-|
G|-000-000-000-000-000-000-00-----------|-0-|
C|-000-000-000-000-000-000-00-----------|-0-|
   ... ... ... ... ... ... ..             Let Note Ring
    Repeat 4 Times

*first guitar   *Second guitar, comes in after second time
D|-------------|-----------------------------------------|
A|-------------|-----------------------------------------|
F|-------------|-----------------------------------------|
C|-5-3-2-3-2-0-|-0-0-0-0-0-00000--0-0-0-0-0-000000000000-|
G|-------------|-0-0-0-0-0-00000--0-0-0-0-0-000000000000-|
C|-------------|-0-0-0-0-0-00000--0-0-0-0-0-000000000000-|
                 . . . . . .....  . . . . . ............
 Repeat 14 Times  Repeat 3 Times

Interlude & little solo I'm working on

D|-------------------------------------------------------------------------|
A|-------------------------------------------------------------------------|
F|-------------------------------------------------------------------------|
C|-2/1-2/1---2/1-0-0-0-0-0-0-00-0-00-|-2/1-2/1-2/1-2/1-0-0-0-0-0-0-00-0-00-|
G|-2/1-2/1---2/1-0-0-0-0-0-0-00-0-00-|-2/1-2/1-2/1-2/1-0-0-0-0-0-0-00-0-00-|
C|-2/1-2/1---2/1-0-0-0-0-0-0-00-0-00-|-2/1-2/1-2/1-2/1-0-0-0-0-0-0-00-0-00-|
                 . . . . . . .. . ..        Repeat 3x  . . . . . . .. . ..
D|-----------------|-------------------|
A|-----------------|-------------------|
F|-----------------|-------------------|
C|-000-00-0-0-00-3-|--3-3--3-3-3-2-1-0-|
G|-000-00-0-0-00-1-|--1-1--1-1-3-2-1-0-|
C|-000-00-0-0-00---|-0----0----3-2-1-0-|
   ... .. . . ..     .    .
   Repeat 8 Times

http://www.purevolume.com/senecanc
Tap to rate this tab
 
# A B C D E F G H I J K L M N O P Q R S T U V W X Y Z