Guitaretab - guitar tabs
Song name
# A B C D E F G H I J K L M N O P Q R S T U V W X Y Z

Misc Unsigned Bands - Red Degree - Difference tab

Song: Difference
Band: Red Degree
Tabber: PunkJurbe

Guitar 1 & 2 W/Distortion

Intro

E---------------------------------------------------------------------------
b---------------------------------------------------------------------------
g---------------------------------------------------------------------------
d---------------------------------------------------------------------------
a----9-----9-----5-----5-----7----7----9-9---5----5---7-----7-----9-9-9-9---
e----7-----7-----3-----3-----5----5----7-7---3----3---5-----5------7-7-7-7--


Verse
Riff A-----------------------------------------------------------------
                                                                       |
E-------------------------------------------------------------------------|
b-------------------------------------------------------------------------|
g-------------------------------------------------------------------------|
d----------------------------------------------------------------------0--|
a-----9--0--9--0--9----5--0--5--0--5----7--0--7--0--7----9--9--9--9----0--|
e-----7--0--7--0--7----3--0--3--0--3----5--0--5--0--5----7--7--7--7----0--|
Repeatx3

Riff put in
[ Tab from: http://www.guitaretab.com/m/misc-unsigned-bands/68099.html ]
E------------------------------------------------------------------------|
b------------------------------------------------------------------------|
g------------------------------------------------------------------------|
d------------------------------------------------------------------------|
a----10--10--10--10---10----9----9------10--10--10---10--10----9----9----|
e----8---8---8---8----8-----7----7------8---8---8----8---8-----7----7----|


Flow:

Intro
Verse
Riff A x2 (no lyrics)
Verse
Riff A x4 (Interlude)
Bridge (Riff A x4 + Riff put in)
Outro (Same as intro) (no lyrics)


Lyrics:

Verse

It doesn`t make any difference what you say to me, oh yeah
All the things you say, are like shit in my head
It doesn`t make any difference what you say to me oh yeah
All the things you say, pass me by like thin air

Verse 2

When you say you hate me, I don`t really care
All the things you say are like shit in my head
When I say I love you I don`t really care
All the things you say pass me by like air

Interlude

...Difference...Difference, Diffreeee(hold)eeeeeeeence Diffreeeee(hold)eeence...


Bridge

It doesn`t really matter what you say
coz` everything will pass me by
It doesn`t really matter what you
coz`everything you do is to complane!
Related for Red Degree - Difference tab
Advertisement will be closed in 10 seconds