Song name
# A B C D E F G H I J K L M N O P Q R S T U V W X Y Z

Misc Unsigned Bands - Our Last Day - A Day Without You tab

This is a song written by second lead guitarist of Our Last day...Its really great. 


x=palm Mute/strum


Intro

[------------------------------------------------------------------xxx-]
[-9999999-777-555-9999999-777-555----------------------------------xxx-]
[---------------------------------8888888-777-666-8888888-777-666--xxx-]
[------------------------------------------------------------------xxx-] X4
[------------------------------------------------------------------xxx-]
[------------------------------------------------------------------xxx-] 


Verse 
 
[-------------------]
[-------------------]
[--9-9-9-999-9999---] X3    
[--xxxxxxxxxxxxxx---]  
[--8-8-8-888-8888---]
[--7-7-7-777-7777---]    

Chourus   
[--------xx------]
[--------xx------]
[--------xx------] x3  
[--------xx------]
[-9-9-999999-----]
[-7-7-777777-----] 


Next: Verse  

Next: Chourus  

Next: Verse 

Next: Chourus  



Ending:
[------------------]
[------------------]
[------------------]
[-9-99-999-99-6-7--]
[-7-77-878-777-67--]
[--------------89--]  



This song was written for all the people who had a close friend and he/she died in a tragic accident.  


Visit Our website at www.ourlastday.cabanova.com



Tap to rate this tab
 
# A B C D E F G H I J K L M N O P Q R S T U V W X Y Z