Song name
# A B C D E F G H I J K L M N O P Q R S T U V W X Y Z

Misc Unsigned Bands - Ronnie Day - Heroes Die tab

e|---------------------------------------|
B|---------------------------------------|
G|------0h2p0----------------------------|
D|---3--------3---X2--------2h3p2-----X2-|
A|-----------------------3---------3-----|
E|-1-------------------3-----------------|

e|----------------------------------------|
B|---------------------------0--0-0-0~----|
G|------0h2p0----------------0--0-0-0~----|
D|---3---------X2--------2---2--2-2-0~----|
A|---------------------3-----3--3-3-2~----|
E|-1-----------------3--------------3~----|
Tap to rate this tab
# A B C D E F G H I J K L M N O P Q R S T U V W X Y Z