Song name
# A B C D E F G H I J K L M N O P Q R S T U V W X Y Z

Misc Unsigned Bands - Serpentine - Falling tab

I found another song by this band...I think this is the only two out there.
Whatever, this one was easier to tab

Intro/Verse:(Guitar 1 Clean)
E------------------------------------------|
B------------------------------------------|
G------0-------0-------7----7h9-7----------|
D----9---9---7---7---9---9--------7h9-7----|
A--7-------5-------7-----------------------|
E------------------------------------------|

Intro: (Guitar 2 Dist.)
E------------------------------------------|
B------------------------------------------|
G------------------------------------------|
D------------------------------------------|X2
A------------------------------------------|
E-<12>-------------------------------------|

then....

E------------------------------10-8-7h8p7-0-|
B-------------------------------------------|
G-------------------------------------------|
D-------------------------------------------|
A-------------------------------------------|
E-------------------------------------------|

Verse: (Guitar 2 Dist.)
E---/7-8-0~------------10-8-7h8p7-0~--|
B-------------------------------------|Note: Let the high E ring throughout
G-------------------------------------|
D-------------------------------------|
A-------------------------------------|
E-------------------------------------|

Pre-Chorus: (Guitar 1 Clean)
E-------------------------------|
B-------------------------------|
G-------0-------0-------0----2--|
D-----9---9---7---7---5---5--2--|
A---7-------5-------3--------0--|
E-------------------------------|

Chorus: (Both Guitars Dist.)
E-------------------------------|
B-------------------------------|
G--9-9-9-9-9--5-5-5--7-7-7-7-7--|
D--9-9-9-9-9--5-5-5--7-7-7-7-7--|
A--7-7-7-7-7--3-3-3--5-5-5-5-5--|
E-------------------------------|

then play verse for both guitars again..

then pre-chorus again..

then chorus again..

Bridge: (This is a bass line but ive transcribed it for guitar)
E----------------------------------------------------------------------
B----------------------------------------------------------------------
G------------------------------------------------------------{9-9-9-9}-
D--2-2--5-5-5--7-7-----2-2--5-5--3-----2-2--5-5--7-7--9-9-9--{9-9-9-9}-
A--2-2--5-5-5--7-7-----2-2--5-5--3-----2-2--5-5--7-7--9-9-9--{7-7-7-7}-
E--0-0--3-3-3--5-5-----0-0--3-3--1-----0-0--3-3--5-5--7-7-7------------
 PM========================================================

Note: The notes in parentheses ARE played by a guitar..not the bass

Solo Backing: (Guitar 2 Dist.) I'm pretty sure he plays it like this....
E----------------------------------------------|
B----------------------------------------------|
G----------------------------------------------|
D----------------------------------------------|{}'d notes play every 
A--14-14-X-14-14-14--10-10-10--12-12-12--{10}--|second time through
E--12-12-X-12-12-12--8--8--8---10-10-10--{8}---|

I'm still working on the solo, this one is a lil easier to hear than the last one,
ill put it on as soon as I can..

Continue playing the chorus riff until the end of the song... 

Tap to rate this tab
# A B C D E F G H I J K L M N O P Q R S T U V W X Y Z