Song name
# A B C D E F G H I J K L M N O P Q R S T U V W X Y Z

Misc Unsigned Bands - Paperback Novel - Holding On tab

Help us improve GuitareTab! Take a short survey!
-----------------------------------------------------------------------------
		        Holding On-Paperback Novel
-----------------------------------------------------------------------------
Tabbed by: Mike Gruse
Email: Zeroskater6190@aol.com

Tuning: Standard

X=Palm Mute

Intro:
   Em   B7    G    D7......do this twice then go
e|--0----2----3----5--------------------------------------------------------|
B|--0----4----3----7--------------------------------------------------------|
G|--0----2----0----5--------------------------------------------------------|
D|--2----4----0----7--------------------------------------------------------|
A|--2----2----2----5--------------------------------------------------------|
E|--0----2----3----5--------------------------------------------------------|

e|--------------------------------------------------------------------------|
B|--------------------------------------------------------------------------|
G|------5------5----5------5------------------------------------------------|
D|-22-2-5-22-2-5-22-5-22-2-5-22-2-545-5------Repeat it twice----------------|
A|-22-2-3-22-2-3-22-3-22-2-3-22-2-545-5-------------------------------------|
E|-00-0---00-0---00---00-0---00-0-323-3-------------------------------------|
   XX X   XX X   XX   XX X   XX X

Verse
e|--------------------------------------------------------------------------|
B|--------------------------------------------------------------------------|
G|--------4------------------44-44------5-----------------------------------|
D|-----2--4--5--4------7-5-4-44-44-22-2-5-22-2-545-5------------------------|
A|-----2--2--5--4------7-5-4-22-22-22-2-3-22-2-545-5------------------------|
E|-----0-----3--2------5-3-2-------00-0---00-0-323-3------------------------|

Chorus
e|--------------------------------------------------------------------------|
B|--------------------------------------------------------------------------|
G|---5---7---play a F# on every second line (instead of the D)--------------|
D|-2-5-5-7-------------4----------------------------------------------------|
A|-2-3-5-5-------------4----------------------------------------------------|
E|-0---3---------------2----------------------------------------------------|

Little Instrumental Deal
e|--------------------------------------------------------------------------|
B|--------------------------------------------------------------------------|
G|------------------------------------------------------4-------------------|
D|--2--5--7--5--4545------------------------------------4-------------------|
A|--2--5--7--5--4545------------------------------------2-------------------|
E|--0--3--5--3--2323-repeat 4 times, ending on a B--------------------------|

Solo. (guitar 2 plays chorus)
e|--15--14--12--14--15--14--15b^r--15--14--14--15--14--12--10---------------|
B|-12-----------------------------------------------------------------------|
G|--------------------------------------------------------------------------|
D|--------------------------------------------------------------------------|
A|--------------------------------------------------------------------------|
E|--------------------------------------------------------------------------|

e|-s20-20-20-20-20-20s19-17-19-14h15-14h15-14h15p14-12~~~~~~~---------------|
B|--------------------------------------------------------------------------|
G|--------------------------------------------------------------------------|
D|--------------------------------------------------------------------------|
A|--------------------------------------------------------------------------|
E|--------------------------------------------------------------------------|

Play the chorus 2 more times and end on the same chords as the intro. rock on.

Related for Paperback Novel - Holding On tab