Guitaretab - guitar tabs
Song name
# A B C D E F G H I J K L M N O P Q R S T U V W X Y Z

Misc Unsigned Bands - The Vagaries Of The Weather - Part Of The World tab

Intro :

e-------------------------------|
B----1--------------------------|
G-----2-----2-------------------|
D----2-------2-----2------------|
A-----------0-------2-3-2-0-----|
E------------------0------------|


e-----------------------------------------|
B----1------------------------------------|
G-----2--2--------------------------------|
D----2----2--2----------------------------|
A--------0----2-3-2-0-0-2-3-3/5-5-3-2-0---|
E------------0----------------------------|


e--------0-------0-------3----0----|
B------1-1-----1-1-----0-0----1----|
G--------2-------0-------0----2----|
D------2-2-------2-------0----2----|
A--------0-----3-3-------2----0----|
E--------0-------0-----3-3----0----|

Verse :


     C              D      G
There two ways   ,I can  , go

   C        D         Em
love or    ,die     ,alone

  C        D           G
or be  ,insperetion  ,for all

  C         D           G
stay as  ,a memorie  ,long

Verse 2 :

This are the same chords, but just an other rythm C;D;G - C;D;Em

   C              D       G
My heart is   ,hard as   ,stone

  C          D              Em
never   ,love filled    ,I'm alone
[ Tab from: http://www.guitaretab.com/m/misc-unsigned-bands/68234.html ]
  C              D            G
Can sombodey   ,handel   ,with this

  C            D          Em
I'm an    ,old cold    ,nemesis

Bridge :

The rythem you can hear from the song

e----0----2----x----0----|
B----3----3----x----0----|
G----1----2----x----0----|
D----2----0----x----5----|       4X
A----2----0----x----5----|
E----0----0----x----2----|


e--------------------------------|
B--------------------------------|
G--------------5------------7-5--|
D----5-5--5/7--5--5-5--5/7--7-5--|
A----5-5--5/7--2--5-5--5/7--5-2--|
E----2-2--2/5--0--2-2--2/5--0-0--|


Solo :

e--------------------------------------------------------|
B--------------------------------------------------------|
G---(9)-7---------------5-7-7/9-9-7----------------------|
D---------9-7-9-9-9-9-5-------------9-7-(9)-(7)-(9)-(7)--|
A--------------------------------------------------------|
E--------------------------------------------------------|


e----------------------------------|
B----------------------------------|
G----------------------------------|
D---9-7-9-5-7-5-3-5-3-3-3h5p3------|
A-----------------------------5-3--|
E----------------------------------|

Outro:

Is the same as verse 2


Play:

Intro 1x
Verse 2x
verse2 2x
Bridge 1x
Verse2 1x
Solo 1x
Verse 1x
Verse2 1x
Outro 1x
Related for The Vagaries Of The Weather - Part Of The World tab