Guitaretab - guitar tabs
Song name
# A B C D E F G H I J K L M N O P Q R S T U V W X Y Z

Misc Unsigned Bands - The Vagaries Of The Weather - Against My Mind tab

Song : Against my mind
Band : The Vagaries of the Weather
Played by Dinko Hadzihajdarevic

Intro:

e---0-0-0-0-0---0-0-0-0-0---0--0-0-0---0-0-----0--|
B---1--1-1-1-1--1--1-1-1-1--1----------1--1---0---|
G---2-----------2-----------2---3-3-3--2---2-2----|
D---2-----------2-----------2----------2----------|
A---0-----------0-----------0----------0----------|
E---0-----------0-----------0----------0----------|

Verse:

e---0---0---0---0---------|
B---1---0---0---0---------|
G---0---0---0---2---------|
D---2---2---0---0---------|     The rythm is every chord 4x and always up - down
A---0---2---2---0---------|
E---0---0---3---0---------|


Bridge:

e------------------|
B------------------|
G-----2--2---0--0--|
D----2--2---0--0---|         4x
A---0--0---2--2----|
E------------------|

Verse 2 :
[ Tab from: http://www.guitaretab.com/m/misc-unsigned-bands/68254.html ]
e---2---3---2---0---2---3---2---0---0--|
B---3---0---3---2---3---0---3---2---2--|
G---4---0---2---2---4---0---2---2---2--|   4x the rythm you can find out
D---4---0---0---2---4---0---0---2---0--|      by hearing
A---2---2---0---0---2---2---0---0---0--|
E---0---3---0---0---0---3---0---0---0--|


Solo :

e-----------------------------------------------|
B-----------------------------------------------|
G-----------------------------------------------|
D-----------------------------------------------|
A--7-9-7-----------------7-9-7------------------|
E--------7-7/9-9-10-9-10-------7-7/9-9-10-9-10--|


e-----------------------------------------------|
B-----------------------------------------------|
G-----------------------------------------------|
D-----------------------------------------------|
A--7-9-7--------------------------------7-9-7---|
E--------7-7/9-9-9-9-9/12-12-12-12-12/7---------|


e-------------------------------|
B-------------------------------|
G-------------------------------|
D-----------9-7-------0---------|
A---7-7-9-7-----9-7-7-0---------|
E-7-------------------7---------|


Playing :

Verse 1x
Bridge 1x
Verse2 1x
Bridge 1x
Solo 1x
Bridge 1x
Verse 1x
Verse2 1X
Bridge 1x
Related for The Vagaries Of The Weather - Against My Mind tab
Advertisement will be closed in 10 seconds