Song name
# A B C D E F G H I J K L M N O P Q R S T U V W X Y Z

Misc Unsigned Bands - Our Peoples Army - Envy Em tab

This tab is 1000% percent correct.  I would know since I was the one who wrote the song.


                               Verse 1

e|-------------------------------------------------------------------------|
B|-------------------------------------------------------------------------|
G|-------------------------------------------------------------------------|
D|-------------------------------------------------------------------------|
A|--7-8-8-7---7-8-8-7---7-8-8-7-5-5-7-7--------7-8-8-7---7-----7---7-8-8-7-|
E|-5---------5---------5----------------8-5---5---------5--8-8----5--------|

e|-------------------------------------------------------------------|
B|-------------------------------------------------------------------|
G|-------------------------------------------------------------------|
D|-------------------------------------------------5-5---------------|
A|-5-5-7-7--------7-----7---7-----7---7-----7--7-7-----5-------------|
E|---------8-5---5--8-8----5--8-8----5--8-8---------------5-7-8-8-7--|

e|------------------------------------------------------------------|
B|------------------------------------------------------------------|
G|------------------------------------------------------------------|
D|------------------------------------------------------------------|
A|---------------------------7-7-5----------------------------------|
E|-5-7-8-8-7--5-7-8-8-7--8-8--------5-7-8-8-7--5-7-8-8-7--5-7-8-8-7-|

e|-----------|
B|-----------|
G|-----------|
D|-----------|
A|-----7-7-5-|
E|-8-8-------|

                                 Chorus

e|------------------------------------------|
B|------------------------------------------|
G|------------------------------------------|
D|------------------------------------------|(x4)
A|-77777777-33333333-55555555-10101010-9999-|
E|-55555555-11111111-33333333-8-8-8-8--7777-|
PM  ... ...  ... ...  ... ...   . . .   ...
(3rd and 4th time through for palm mute)

Verse 1

Chorus

                              "Solo/Bridge"

e|---------------------------------------------------------------------|
B|---------------------------------------------------------------------|
G|--------------------------(x4)---------------------------(x2)--------|x2
D|-2-----3-----2-----0---2--------2-----3-----5-----3------------------|
A|---3-0---3-0---3-0---3---3--------3-0---3-0---3-0---3-0--------------|
E|---------------------------------------------------------------------|
Palm Mute everything second time through

                                 Chorus 2

e|-----------------------|
B|-----------------------|
G|-----------------------|
D|-----------------------|(x2)
A|-7--------3------5---9-|
E|-5--------1------3---7-|

Chorus 1

Verse 1

And thats all, have fun
Ben Struttman- Lead Guitar, Our Peoples' Army
Tap to rate this tab
 
# A B C D E F G H I J K L M N O P Q R S T U V W X Y Z