Song name
# A B C D E F G H I J K L M N O P Q R S T U V W X Y Z

Misc Unsigned Bands - Forsaken - Heavy Burden tab

Im the guitar player for this band soo this tabbing is 100% correct garenteed!
enjoy my music!

dropped d tuning
LEGEND
b=bend
h=hammer on
\=slide down
T=tap

intro
e/-------------------------------------|
b/-------------------------------------|
g/-------------------------------------|
d/-------------------------------------|x4 2 solo
a/-----00-5h6-5-00-3h4-3-00-2h3-2-0-0--|
E/-----00-5h6-5-00-3h4-3-00-2h3-2-0-0--|

chorus
e/-------------------------------------|
b/-------------------------------------|
g/-------------------------------------|
d/-------------------------------------|
a/---00-07b-00-06b-00-05b-00-0456------|
E/---00-07b-00-06b-00-05b-00-0456------|

guitar takes a solo just repeat the intro twice then......


e/-------------------------------------|
b/-------------------------------------|
g/-------------------------------------|
d/-------------------------------------|x2
a/-----00-5h6-5-00-3h4-3-00-2h3-2-0-0--|
E/-----00-5h6-5-00-3h4-3-00-2h3-2-0-0--|

on this repeat of the chorus drain the bend for an extra beat.


e/-------------------------------------|
b/-------------------------------------|
g/-------------------------------------|
d/-------------------------------------|x4 solo for only 2
a/---00-07b-00-06b-00-05b-00-0456------|
E/---00-07b-00-06b-00-05b-00-0456------|

verse 1

e/-------------------------------------|
b/-------------------------------------|
g/-------------------------------------|
d/-------------------------------------|x2
a/---00-012-00-010-00-08-00-06b--------|
E/---00-012-00-010-00-08-00-06b--------|

fill after the 2nd time

e/-------------------------------------|
b/-------------------------------------|
g/---11-9-0----------------------------|
d/---------11-9-0----------------------|
a/---------------10\\\\\\\\\\\\2-------|
E/---------------10\\\\\\\\\\\\2-------|

verse 2
e/-------------------------------------|
b/-------------------------------------|
g/-------------------------------------|
d/-------------------------------------|
a/---222220-222223-222202--------------|
E/---222220-222223-222202--------------|

e/-------------------------------------|
b/-------------------------------------|
g/-------------------------------------|
d/-------------------------------------|
a/---222220-222223-2222023-------------|
E/---222220-222223-2222023-------------|

repeat the intro after that, then play this solo twice.
     T      T      T      T      T
e/---12-5h8-12-5h8-12-5h8-12-5h8-12-5h8-|
b/--------------------------------------|
g/--------------------------------------|
d/--------------------------------------|
a/--------------------------------------|
E/--------------------------------------|
     T      T      T     T      T
e/---12-5h8-12-5h8-12-5h8--------------|
b/-----------------------12-5h8-12-5h8-|
g/-------------------------------------|
d/-------------------------------------|
a/-------------------------------------|
E/-------------------------------------|
     T      T      T      T      T
e/--------------------------------------|
b/---12-5h8-12-5h8-12-5h8-12-5h8-12-5h8-|
g/--------------------------------------|
d/--------------------------------------|
a/--------------------------------------|
E/--------------------------------------|
     T      T       T       T
e/-------------------------------------|
b/---12-5h8-12-7h10-12-7h10-12-7h10----|
g/-------------------------------------|
d/-------------------------------------|
a/-------------------------------------|
E/-------------------------------------|
     T       T       T       T
e/-------------------------------------|
b/---12-7h10-12-7h10-12-7h10-12-7h10---|
g/-------------------------------------|
d/-------------------------------------|
a/-------------------------------------|
E/-------------------------------------|
     T       T      T      T      T
e/---------------------------------------|
b/---12-7h10-12-3h6-12-3h6-12-3h6-12-3h6-|
g/---------------------------------------|
d/---------------------------------------|
a/---------------------------------------|
E/---------------------------------------|
     T      T      T      T     T
e/------------------------------12-5h8--|
b/---12-3h6-12-3h6-12-3h6-12-3h6--------|
g/--------------------------------------|
d/--------------------------------------|
a/--------------------------------------|
E/--------------------------------------|
     T      T      T      T      T
e/---12-5h8-12-5h8-12-5h8-12-5h8-12-5h8-|
b/--------------------------------------|
g/--------------------------------------|
d/--------------------------------------|
a/--------------------------------------|
E/--------------------------------------|
     T      T      T       T       T
e/---12-5h8-12-5h8-12-7h10-12-7h10-12-7h10-|
b/-----------------------------------------|
g/-----------------------------------------|
d/-----------------------------------------|
a/-----------------------------------------|
E/-----------------------------------------|

     T       T       T       T       T
e/---12-7h10-12-7h10-12-7h10-12-7h10-12-7h10-|
b/-------------------------------------------|
g/-------------------------------------------|
d/-------------------------------------------|
a/-------------------------------------------|
E/-------------------------------------------|

    T      T      T      T      T      T
e/--12-3h6-12-3h6-12-3h6-12-3h6-12-3h6-12-3h6-|
b/--------------------------------------------|
g/--------------------------------------------|
d/--------------------------------------------|
a/--------------------------------------------|
E/--------------------------------------------|
     T      T     T      T      T      T
e/---12-3h6-12-3h6----------------------------|
b/----------------12-5h8-12-5h8-12-5h8-12-5h8-|
g/--------------------------------------------|
d/--------------------------------------------|
a/--------------------------------------------|
E/--------------------------------------------|
     T      T      T      T
e/-------------------------------------------|
b/---12-5h8-12-5h8-12-5h8-12-5h8b------------|
g/-------------------------------------------|
d/-------------------------------------------|
a/-------------------------------------------|
E/-------------------------------------------|


after that goo back to the intro as an outro for 8.


officail site: www.forsakenones.friendpages.com
Tap to rate this tab
# A B C D E F G H I J K L M N O P Q R S T U V W X Y Z