Guitaretab - guitar tabs
Song name
# A B C D E F G H I J K L M N O P Q R S T U V W X Y Z

Misc Unsigned Bands - Out-take - Plain As Can Be tab

Outtake - Plain As Can be Tabbed By Their Drummer chazmidds

Intro...
|--------------------------------------------------------||
|--------------------------------------------------------||
|---666----------666----------666------------------------||
|---666--6--666--666--8--888--666--4--444----------------||
|---444--6--666--444--8--888--444--4--444----------------||TIMES 2
|--------4--444-------6--666-------2--222----------------||

Verse
|------------------------------------------------------------------||
|------------------------------------------------------------------||
|--6--666-------------------------6--666---------------------------||
|--6--6666--666--8--888--4--444--6--666--666/--8/4--444--4-------||
|--4--4446--666--8--888--4--444--4--444--666/--8/4--444--4-------||TIMES 2
|---------4--444--6--666--2--222----------4-44/--6/2--222--2-------||


Chorus
|-----------------------||
|-----------------------||
|---------666-----------||
|---888---666---66------||
|---888---444---66------||TIMES 2
|---666---------44------||
[ Tab from: http://www.guitaretab.com/m/misc-unsigned-bands/68363.html ]
Verse
|------------------------------------------------------------------||
|------------------------------------------------------------------||
|--6--666-------------------------6--666---------------------------||
|--6--6666--666--8--888--4--444--6--666--666/--8/4--444--4-------||
|--4--4446--666--8--888--4--444--4--444--666/--8/4--444--4-------||TIMES 2
|---------4--444--6--666--2--222----------4-44/--6/2--222--2-------||



Chorus
|-----------------------||
|-----------------------||
|---------666-----------||
|---888---666---66------||
|---888---444---66------||TIMES 2
|---666---------44------||

Verse
|------------------------------------------------------------------||
|------------------------------------------------------------------||
|--6--666-------------------------6--666---------------------------||
|--6--6666--666--8--888--4--444--6--666--666/--8/4--444--4-------||
|--4--4446--666--8--888--4--444--4--444--666/--8/4--444--4-------||TIMES 2
|---------4--444--6--666--2--222----------4-44/--6/2--222--2-------||

Last Chorus

|----------------------------||
|----------------------------||
|--------666-----------------||
|---888--666--66--4444-------||
|---888--444--66--4444-------||
|---666-------44-2222-------||



Link To Out-Takes Site www.outtaketheband.moonfruit.com or
Out-Takes My Space : www.myspace.com/outtake
Related for Out-take - Plain As Can Be tab