Song name
# A B C D E F G H I J K L M N O P Q R S T U V W X Y Z

Misc Unsigned Bands - Finest Hour - Letters Back Home tab

This Is A Great Song easy to tab. If You have any thing to tell me email me
at isiahsalzar12321@yahoo.com or get me on aim. Someloser42

Piano intro (for guitar)

Plays for (50 secs)

e----------------------------------------------------------------------------|
b-1-1--6-5-3-1-1-1--3-1-0-1--------------------------------------------------|
g----------------------------------------------------------------------------|
D----------------------------------------------------------------------------|
A----------------------------------------------------------------------------|
E----------------------------------------------------------------------------|

Rythm Guitar for pre-chorous repeat 5x's
e----------------------------------------------------------------------------|
b----------------------------------------------------------------------------|
g----------------------------------------------------------------------------|
D-3-3-3-3--5--7-7-7-7--5-5-5-5--7-7-7-7--------------------------------------|
A-3-3-3-3--5--7-7-7-7--5-5-5-5--7-7-7-7--------------------------------------|
E-1-1-1-1--3--5-5-5-5--3-3-3-3--5-5-5-5--------------------------------------|

First Chorous comes in at (1:07) ends at (1:24)
e---------------------------------------------------------------------------|
b---------------------------------------------------------------------------|
g-5-5-5-5-------------------------------------------------------------------|
D-5-5-5-5--3-3-3-3--7-7-7-7--5-5-5-5----------------------------------------|
A-3-3-3-3--3-3-3-3--7-7-7-7--5-5-5-5----------------------------------------|
E----------1-1-1-1--5-5-5-5--3-3-3-3----------------------------------------|

Repeat Intro for 12 seconds
e----------------------------------------------------------------------------|
b-1-1--6-5-3-1-1-1--3-1-0-1--------------------------------------------------|
g----------------------------------------------------------------------------|
D----------------------------------------------------------------------------|
A----------------------------------------------------------------------------|
E----------------------------------------------------------------------------|

And Then Come Back to This at (1:36)
e---------------------------------------------------------------------------|
b---------------------------------------------------------------------------|
g-5-5-5-5-------------------------------------------------------------------|
D-5-5-5-5--3-3-3-3--7-7-7-7--5-5-5-5----------------------------------------|
A-3-3-3-3--3-3-3-3--7-7-7-7--5-5-5-5----------------------------------------|
E----------1-1-1-1--5-5-5-5--3-3-3-3----------------------------------------|

And Then this riff kicks at at (1:54) all the way to (2:12)
e----------------------------------------------------------------------------|
b----------------------------------------------------------------------------|
g----------------------------------------------------------------------------|
D-3-3-3-3--5--7-7-7-7--5-5-5-5--7-7-7-7~-------------------------------------|
A-3-3-3-3--5--7-7-7-7--5-5-5-5--7-7-7-7~-------------------------------------|
E-1-1-1-1--3--5-5-5-5--3-3-3-3--5-5-5-5~-------------------------------------|

BreakDown At (2:13) Piano On Guitar ends at (2:30)
e--3--3--3--3--3--3---------------------------------------------------------|
b-1--1--1--1--1--1----------------------------------------------------------|
g---------------------------------------------------------------------------|
D---------------------------------------------------------------------------|
A---------------------------------------------------------------------------|
E---------------------------------------------------------------------------|

And this riff UNtil the song is over
e---------------------------------------------------------------------------|
b---------------------------------------------------------------------------|
g-5-5-5-5-------------------------------------------------------------------|
D-5-5-5-5--3-3-3-3--7-7-7-7--5-5-5-5~---------------------------------------|
A-3-3-3-3--3-3-3-3--7-7-7-7--5-5-5-5~---------------------------------------|
E----------1-1-1-1--5-5-5-5--3-3-3-3~---------------------------------------|

ENJOY!!
Tap to rate this tab
# A B C D E F G H I J K L M N O P Q R S T U V W X Y Z