Guitaretab - guitar tabs
Song name
# A B C D E F G H I J K L M N O P Q R S T U V W X Y Z

Misc Unsigned Bands - Random Objective - Fallen tab

#----------------------------------PLEASE NOTE---------------------------------#
#This file is the author's own work and represents their interpretation of the-#
#song. You may only use this file for private study, scholarship, or research.-#
#---------------This file was downloaded from
#---This tab was created using Tabber software from

Title: Fallen
Artist: Random Objective
Album: United We Fall

Instrument: 6 String Guitar

Tabbed by: Mickey Numbers
[ Tab from: ]
Uh...The hardest part is getting the rhythm right. Kind of fast too.
Intro (Guitar 1):
E |--------------------------------------------------|
B |--------------------------------------------------|
G |--------------------------------------------------|
D |---4--0-0--5--0-0--4--5--4--2--0-0h2--------------|
A |-22-22-2-22-22-2-22-22-22-00-00-0-----------------|
D |--------------------------------------------------|

Intro (Guitar 2):
E |----------------------------------------------------0h2--|
B |-00-7-00-3-0-3-00-8-00-3-0-3-00-7-00-8-00-7-00-3-00------|
G |---------------------------------------------------------|
D |---------------------------------------------------------|
A |---------------------------------------------------------|
D |---------------------------------------------------------|
Related for Random Objective - Fallen tab