Song name
# A B C D E F G H I J K L M N O P Q R S T U V W X Y Z

Misc Unsigned Bands - A Hopeless Thought - The Lights Are On But I Still Cant See tab

The lights are on, but i still cant see

. = palmute
h = hammer on
/ = slide


intro
]------------------------------|
]------------------------------|
]------------------------------|
]-------50302h3-------5032-----|x4
]-0h3h5---------0h3h5----------|
]------------------------------|

riff 1
]-------------|
]-------------|
]-------------|
]-0000--------|
]-0000--------|
]-0000--------|
  ...

riff 2
]-------------------------|
]-------------------------|
]-------------------------|
]-0h20h30h50h3------------|
]-------------------------|
]-------------------------|

riff 3
]-------------------------------------------------|
]-------------------------------------------------|
]-5/777-55/777-1010101010101010-99999999----------|
]-------------------------------------------------|
]-3/555-33/555--8-8-8-8-8-8-8-8-77777777----------|
]-------------------------------------------------|

]------------------------------------------------------|
]------------------------------------------------------|
]-5/777-55/777--1212121212121212-1010101010101010------|
]------------------------------------------------------|
]-3/555-33/555--1010101010101010--8-8-8-8-8-8-8-8------|
]------------------------------------------------------|


riff 4
]-------------------------------------------|
]-------------------------------------------|
]---5/7----10/9---5/7-----12/10-10/9--9/10--|
]-0-----00------0-----00--------------------|
]-0-3/5-00--8/7-0-3/5-00--10/8---8/7--7/8---|
]-0-----00------0-----00--------------------|

riff 5
]------------------------------------------|
]------------------------------------------|
]-5-10-9-7-12-10-9-10-5-10-9-7-12-10-14----|
]------------------------------------------|
]-3-8--7-5-10--8-7--8-3--8-7-5-10--8-12----|
]------------------------------------------|

riff 6
]---------------------------------------|
]---------------------------------------|
]-5-10-9-7-5-10-9-7-5-10-9-7-12-10------|
]---------------------------------------|
]-3--8-7-5-3--8-7-5-3--8-7-5-10--8------|
]---------------------------------------|

]------------------------------------|
]------------------------------------|
]-5-10-9-7-5-10-9-7-5-10-9-7-12-14---|
]------------------------------------|
]-3--8-7-5-3--8-7-5-3--8-7-5-10-12---|
]------------------------------------|

riff 7
]-------------------------------------------------------------------------|
]-------------------------------------------------------------------------|
]-------------------------------------------------------------------------|
]--5h6-5h6-5h65h6-5h6-5h65h6-5h6-53--3h4-3h4-3h43h4-3h4-3h43h4-3h4-32-----|
]-0---0---0------0---0------0----53-0---0---0------0---0------0----32-----|
]-0---0---0------0---0------0----53-0---0---0------0---0------0----32-----|
  .   .   .      .   .      .       .   .   .      .   .      .

riff 8
]------------------------|
]------------------------|
]------------------------|
]-000050000300002--------|
]-000050000300002--------|
]-000050000300002--------|
  .... .... ....

riff 9
]---------------------|
]---------------------|
]---------------------|
]-005005003003002002--|
]-005005003003002002--|
]-005005003003002002--|
  .. .. .. .. .. ..

riff 10
]-------------------------------------------------------------------|
]-------------------------------------------------------------------|
]------5/7------10/9------5/7----10----9----------------------------|
]-0000-----0000------0000-----00----00------------------------------|
]-0000-3/5-0000--8/7-0000-3/5-00--8-00-7----------------------------|
]-0000-----0000------0000-----00----00------------------------------|
  ....     ....      ....     ..    ..

order

intro
riff 1
riff 2 x4
riff 3 x2
riff 2 x2
riff 3
riff 4 x2
riff 2 x4
riff 3 x2
riff 2 x2
riff 4 x4
riff 5 x2
riff 6
riff 7 x2
riff 8
riff 2
riff 8
riff 2
riff 9
riff 2
riff 9
riff 2
riff 3
riff 10
Tap to rate this tab
# A B C D E F G H I J K L M N O P Q R S T U V W X Y Z